PrimaNota.ru - самый крупный в мире бесплатный архив песенных текстов, аккордов, табулатур и нот


Sick Puppies - Gunfight - таба, видео

Регистрация Запомнить меня
Войти через:  Facebook Google Twitter Vk Yandex Mail.ru

Sick Puppies - Gunfight - таба, видео

Печатать
Просмотров: 495
GUNFIGHT - Sick Puppies
From 2013 Album "Connect"
Transcribed by Matt Parasch

Key:
h - hammer on
p - pull off
v - vibrato
* - palm mute
b - bend
r - bend release

Tuning: Drop C

Intro Riff:
D|--------------------------------------------------------------------------|
A|--------------------------------------------------------------------------|
F|--------------------------------------------------------------------------|
C|--10h12--12--12--12--10--12--10--7--7--3h5--5--3--5--5--3--5--3--0--0-----|
G|--10h12--12--12--12--10--12--10--7--7--3h5--5--3--5--5--3--5--3--0--0-----|
C|--10h12--12--12--12--10--12--10--7--7--3h5--5--3--5--5--3--5--3--0--0-----|
                                                        
D|------------------------------------------------------------------------|
A|------------------------------------------------------------------------|
F|------------------------------------------------------------------------|
C|--10h12--12--12--12--10--12--10--7--7--3h5--5--3--5------0--------------|
G|--10h12--12--12--12--10--12--10--7--7--3h5--5--3--5------0--------------|
C|--10h12--12--12--12--10--12--10--7--7--3h5--5--3--5--3v--0--------------|

Verse:
D|------------------------------------------------|
A|------------------------------------------------|
F|----------------------5----5--------------------|
C|--0----0----0----0----5----5--5--3--5--3--0--0--|      x2
G|--0----0----0----0----3----3--5--3--5--3--0--0--|
C|--0----0----0----0------------5--3--5--3--0--0--|
    *    *    *    *    *    *  *  *  *  *  *  *
D|--------------------------------------------------------------------|
A|--------------------------------------------------------------------|
F|--------------------------------------------------------------------|
C|--10h12--12--12--12--10--12--10--7--7--3h5--5--5--5--3--5--3--0--0--|
G|--10h12--12--12--12--10--12--10--7--7--3h5--5--5--5--3--5--3--0--0--|
C|--10h12--12--12--12--10--12--10--7--7--3h5--5--5--5--3--5--3--0--0--|

D|------------------------------------------------|
A|------------------------------------------------|
F|----------------------5----5--------------------|
C|--0----0----0----0----5----5--5--3--5--3--0--0--|      x2
G|--0----0----0----0----3----3--5--3--5--3--0--0--|
C|--0----0----0----0------------5--3--5--3--0--0--|
    *    *    *    *    *    *  *  *  *  *  *  *
Chorus:
D|-----------------------------------------------------------------------|
A|-----------------------------------------------------------------------|
F|-----------------------------------------------------------------------|
C|--10h12--12--12--12--10--12--10--7--7--3h5--5--3--5--5--3--5--3--0--0--|
G|--10h12--12--12--12--10--12--10--7--7--3h5--5--3--5--5--3--5--3--0--0--|
C|--10h12--12--12--12--10--12--10--7--7--3h5--5--3--5--5--3--5--3--0--0--|

D|-----------------------------------------------------------------------|
A|-----------------------------------------------------------------------|
F|-----------------------------------------------------------------------|
C|--10h12--12--12--12--10--12--10--7--7--3h5--5--3--5------0-------------|
G|--10h12--12--12--12--10--12--10--7--7--3h5--5--3--5------0-------------|
C|--10h12--12--12--12--10--12--10--7--7--3h5--5--3--5--3v--0-------------|

Verse:
D|------------------------------------------------|
A|------------------------------------------------|
F|----------------------5----5--------------------|
C|--0----0----0----0----5----5--5--3--5--3--0--0--|      x2
G|--0----0----0----0----3----3--5--3--5--3--0--0--|
C|--0----0----0----0------------5--3--5--3--0--0--|
    *    *    *    *    *    *  *  *  *  *  *  *

Chorus:
D|-----------------------------------------------------------------------|
A|-----------------------------------------------------------------------|
F|-----------------------------------------------------------------------|
C|--10h12--12--12--12--10--12--10--7--7--3h5--5--3--5--5--3--5--3--0--0--|
G|--10h12--12--12--12--10--12--10--7--7--3h5--5--3--5--5--3--5--3--0--0--|
C|--10h12--12--12--12--10--12--10--7--7--3h5--5--3--5--5--3--5--3--0--0--|

D|-8-8-8-8-8-8-8-8-8-8-8-8-8br-7-7-7-7-7-7-7-7----------------------|
A|------------------------------------------------8br br--6---------|
F|-----------------------------------------------------------7------|      x2
C|------------------------------------------------------------------|
G|------------------------------------------------------------------|
C|------------------------------------------------------------------|

Bridge:
D|--------------------------------------------------|
A|--------------------------------------------------|
F|--------------------------------------------------|
C|--0--0--0--0--0--0--0--0--3--3--3--3--8--8--8--8--|      x3
G|--0--0--0--0--0--0--0--0--3--3--3--3--8--8--8--8--|
C|--0--0--0--0--0--0--0--0--3--3--3--3--8--8--8--8--|

D|----------------------------------------------------|
A|----------------------------------------------------|
F|----------------------------------------------------|
C|--0--0--0--0--0--0--0--0--3--3--3--3--0-------------|
G|--0--0--0--0--0--0--0--0--3--3--3--3--0-(Let ring)--|
C|--0--0--0--0--0--0--0--0--3--3--3--3--0-------------|



Verse:
D|------------------------------------------------|
A|------------------------------------------------|
F|----------------------5----5--------------------|
C|--0----0----0----0----5----5--5--3--5--3--0--0--|      x2
G|--0----0----0----0----3----3--5--3--5--3--0--0--|
C|--0----0----0----0------------5--3--5--3--0--0--|
    *    *    *    *    *    *  *  *  *  *  *  *

Chorus:
D|-----------------------------------------------------------------------|
A|-----------------------------------------------------------------------|
F|-----------------------------------------------------------------------|
C|--10h12--12--12--12--10--12--10--7--7--3h5--5--3--5--5--3--5--3--0--0--|
G|--10h12--12--12--12--10--12--10--7--7--3h5--5--3--5--5--3--5--3--0--0--|
C|--10h12--12--12--12--10--12--10--7--7--3h5--5--3--5--5--3--5--3--0--0--|

D|-----------------------------------------------------------------------|
A|-----------------------------------------------------------------------|
F|-----------------------------------------------------------------------|
C|--10h12--12--12--12--10--12--10--7--7--3h5--5--3--5------0-------------|
G|--10h12--12--12--12--10--12--10--7--7--3h5--5--3--5------0-------------|
C|--10h12--12--12--12--10--12--10--7--7--3h5--5--3--5--3v--0-------------|

Breakdown:
D|----------------------------------------------------------------|
A|----------------------------------------------------------------|
F|----------------------------------------------------------------|
C|-------3p0-3p0-------3p0-3p0-------3p0-3p0----3h5p3---3h5p3---- |    x4
G|----------------------------------------------------------------|
C|--0--0----------0--0----------0--0----------0--------0----------|

Outro Riff:
D|-8-8-8-8-8--8-8-8-8-8--8br-7-7-7-7-7--7-7-7------------------------|
A|------------------------------------------------8br-br--6----------|
F|-----------------------------------------------------------7-------|     x4
C|-------------------------------------------------------------------|
G|-------------------------------------------------------------------|
C|-------------------------------------------------------------------|
|
|
|Background guitar for the outro riff
|
D|---------------------------------------------|
A|---------------------------------------------|
F|---------------------------------------------|
C|---------------------------------------------|    x4
G|--3--5-5-5--5-3-5-3-0------------------------|
C|------------------------3--5-5-5--5-3-5-3-0--|
Добавлено: 16.06.2013
Другие материалы по этой песне:
  • Аккорды и текст

Страница создана 16.06.2013
http://primanota.ru/sick-puppies/gunfight-chords.htm
Привет, Гость.
Предлагаем пройти революционный курс по гитаре.
Подарок от PrimaNota.Ru, забирай!