PrimaNota.ru - самый крупный в мире бесплатный архив песенных текстов, аккордов, табулатур и нот


Sick Puppies - Healing Now - таба, бас-таба, видео

Регистрация Запомнить меня
Войти через:  Facebook Google Twitter Vk Yandex Mail.ru

Sick Puppies - Healing Now - таба, бас-таба, видео

Печатать
Просмотров: 233
-----------------------------------------------------------------------------
                         HEALING NOW - Sick Puppies
-----------------------------------------------------------------------------
From 2013 Album "Connect"
Tabbed by Corner9

Tuning: Drop C

Intro/Verse (0:00-0:32)
D|------------------------------------------------------------|
A|------------------------------------------------------------|
F|----9------9--------9-----9---------9-------9-------9-----9-|
C|------6---------------------------4---4/6-------------------|x3
G|--7---------------7---6---------------------------7---6-----|
C|------------------------------------------------------------|


Prechorus (0:32-0:43)
D|------------------------------------------------------------|
A|------------------------------------------------------------|
F|------------------------------------------------------------|
C|-------6br--------6br------6br-------6br--------6br-----6br-|
G|------------------------------------------------------------|
C|-7-7-7------7-7-7------7-7-----9-9-9-----9-9-9------9-9-----|

D|------------------------------------------------------------|
A|------------------------------------------------------------|
F|------------------------------------------------------------|
C|-------6br-------6br-----6br-------6br-------9-9-9-9-9-9----|
G|-4-4-4-----4-4-4-----4-4-----6-6-6-----6-6-6----------------|
C|------------------------------------------------------------|


Chorus (0:43-1:16) - Strumming not shown, listen for timing
D|--0---------0---------4--------------------|
A|--9---------10--------5---------10---------|
F|--9---------9---------6---------9----------|
C|--9---------7---------6---------7----------|x3
G|--7---------9---------4---------7----------|
C|--------------------------------7----------|


Verse 2 (1:16-1:38)
D|------------------------------------------------------------|
A|------------------------------------------------------------|
F|----9------9--------9-----9---------9-------9-------9-----9-|
C|------6---------------------------4---4/6-------------------|x2
G|--7---------------7---6---------------------------7---6-----|
C|------------------------------------------------------------|



Prechorus 2 (1:38-1:49)
D|------------------------------------------------------------|
A|------------------------------------------------------------|
F|------------------------------------------------------------|
C|-------6br--------6br------6br-------6br--------6br-----6br-|
G|------------------------------------------------------------|
C|-7-7-7------7-7-7------7-7-----9-9-9-----9-9-9------9-9-----|

D|------------------------------------------------------------|
A|------------------------------------------------------------|
F|------------------------------------------------------------|
C|-------6br-------6br-----6br-------6br-------9-9-9-9-9-9----|
G|-4-4-4-----4-4-4-----4-4-----6-6-6-----6-6-6----------------|
C|------------------------------------------------------------|


Chorus 2 (1:49-2:22) - Strumming not shown, listen for timing
D|--0---------0---------4--------------------|
A|--9---------10--------5---------10---------|
F|--9---------9---------6---------9----------|
C|--9---------7---------6---------7----------|x3
G|--7---------9---------4---------7----------|
C|--------------------------------7----------|


Bridge pt. 1 (2:22-2:43) - Strumming not shown, listen for timing
D|------------0---------0--------------|
A|------------5---------5--------------|
F|--9---------6---------4---------9----|
C|--7---------6---------2---------7----|x2
G|--7---------4---------2---------7----|
C|--7-------------------2---------7----|

Bridge pt. 2 (2:43-2:55)
D|------------------------------------------------------------|
A|------------------------------------------------------------|
F|----9------9--------9-----9---------9-------9-------9-----9-|
C|------6---------------------------4---4/6-------------------|
G|--7---------------7---6---------------------------7---6-----|
C|------------------------------------------------------------|



Solo (2:55-3:15)
D|---------------------------------------------------------|
A|--10/12--12-12b14r12--9--9-9-9b10r9-7--------------------|
F|--------------------------------------9-9-9/8-8-8/6-6/4--|
C|---------------------------------------------------------|
G|---------------------------------------------------------|
C|---------------------------------------------------------|

D|--------------------------------------------------|
A|--10/12--12-12b14r12--9--9-9-9b10r9-7---------***-|
F|--------------------------------------9-8-9-8-----|
C|--------------------------------------------------|
G|--------------------------------------------------|
C|--------------------------------------------------|

***A second lead plays this underneath at this point
D|----------------------------|
A|--10/12-12-12---------------|
F|--------------13-13-14-13---|
C|---------------.--.--.--.---|
G|----------------------------|
C|----------------------------|

D|---------------------------------------------------------------|
A|---------------------------------------------------------------|
F|--4-4-4-4/6--6-6-6/9--9-9-9/11--11-11-11/13--13-13-13/11-11/9--|
C|---------------------------------------------------------------|
G|---------------------------------------------------------------|
C|---------------------------------------------------------------|

D|------------------------------------|
A|------------------------------------|
F|--8-8b9r8--6-----9-8-9-8-9----------|
C|--------------9---------------------|
G|------------------------------------|
C|------------------------------------|


Chorus 3 (3:15-4:14) - Strumming not shown, listen for timing
D|--0---------0---------4--------------------|
A|--9---------10--------5---------10---------|
F|--9---------9---------6---------9----------|
C|--9---------7---------6---------7----------|x4
G|--7---------9---------4---------7----------|
C|--------------------------------7----------|

Outro/Ending Lead (3:47-4:14)
D|-------------------------------------------------|
A|--9-10-9/5-----9-10-9--7-----9-10-9/5---------5--|
F|---------------------------------------4-2----4--|
C|----------------------------------------------2--|
G|----------------------------------------------2--|
C|----------------------------------------------2--|

That's all, pretty easy. Comments and corrections are welcome, please rate!


************************************

| .   palm mute
| /   slide
| h   hammer-on
| p   pull-off
| ~   vibrato
| +   harmonic
| x   Mute note

************************************
Добавлено: 12.09.2015
Другие материалы по этой песне:
  • Аккорды и текст

Страница создана 23.01.2014
http://primanota.ru/sick-puppies/healing-now-chords.htm
Привет, Гость.
Предлагаем пройти революционный курс по гитаре.
Подарок от PrimaNota.Ru, забирай!