PrimaNota.ru - самый крупный в мире бесплатный архив песенных текстов, аккордов, табулатур и нот


Shadows - Summer Love 59 - бас-таба, видео

Регистрация Запомнить меня
Войти через:  Facebook Google Twitter Vk Yandex Mail.ru

Shadows - Summer Love 59 - бас-таба, видео

Печатать
Просмотров: 102
s/shadows/Summer_love_'59.btab

Basstab by Jan Bjorklund, Finland  jani_bjorklund@yahoo.se>
You are welcome to request for basstabs!
Bienvenidos a pedirme transcripciones para el bajo!
Fingering and positions as suggested by TablEdit. 

TablEdited by Jan Bjorklund
Tuning : E A D G 	Time Signature: 4/4

 |       |       |       |        |       |       |       |        
|--------------------------------|--------------------------------|
|2-----------2---2-----------2---|2-------------------------------|
|--------------------------------|--------------------------------|
|--------------------------------|--------0-------2-------4-------|

 |       |       |       |        |       |       |       |        
|--------------------------------|--------------------------------|
|--------------------------------|0-----------------------0-------|
|0---------0---------------------|----------------0---------4-2---|
|------------4---2---------2-0---|------------2-------------------|

 |       |       |       |        |       |       |       |        
|--------------------------------|--------------------------------|
|--------------------------------|0-----------------------0-2-----|
|0---------0---------------------|----------------0---------------|
|------------4---2---------2-0---|------------2-------------------|

 |       |       |       |        |       |       |       |        
|--------------------------------|----------2-----------------0---|
|--------------------------------|0-----------4---3---------3-----|
|0---------------0---------------|--------------------------------|
|----------2-0-------------2-0---|--------------------------------|

 |       |       |       |        |       |       |       |        
|2-------------------------------|--------------------------------|
|--------4-------0-------2---2---|------------0---2-4-2---0-------|
|--------------------------------|0---------4---------------4-2---|
|--------------------------------|--------------------------------|

 |       |       |       |        |       |       |       |        
|--------------------------------|--------------------------------|
|--------------------------------|0-----------------------0-------|
|0---------0---------------------|----------------0---------4-2---|
|------------4---2---------2-0---|------------2-------------------|

 |       |       |       |        |       |       |       |        
|--------------------------------|--------------------------------|
|--------------------------------|0-----------------------0-2-----|
|0---------0---------------------|----------------0---------------|
|------------4---2---------2-0---|------------2-------------------|

 |       |       |       |        |       |       |       |        
|--------------------------------|----------2-----------------0---|
|--------------------------2-----|0-----------4---3---------3-----|
|0---------------2---0-------4---|--------------------------------|
|----------2-0-------------------|--------------------------------|

 |       |       |       |        |       |       |       |        
|2-------------------------------|--------------------------------|
|--------4-------0-------2---2---|------------0---2---------------|
|--------------------------------|0---------4-------------0-0-4---|
|--------------------------------|--------------------------------|

 |       |       |       |        |       |       |       |        
|------------------------7-------|------------------------7-------|
|--------4-------7-----------7---|----------------7---------------|
|5-------------------------------|5-------8-----------------------|
|--------------------------------|--------------------------------|

 |       |       |       |        |       |       |       |        
|2-------2---2---2-----------2---|2-----------2-----------0-------|
|--------------------------------|--------------------------4-2---|
|--------------------------------|----------------0---------------|
|--------------------------------|--------------------------------|

 |       |       |       |        |       |       |       |        
|------------------------7-------|------------------------7-------|
|--------4-------7---------------|----------------7---------------|
|5-------------------------------|5-------8-----------------------|
|--------------------------------|--------------------------------|

 |       |       |       |        |       |       |       |        
|6-------------------------------|--------------------------------|
|--------------------------------|----------------2-4-2---0-------|
|--------4-------3-------3-------|2-------2-----------------4-2---|
|----------------------------5---|--------------------------------|

 |       |       |       |        |       |       |       |        
|--------------------------------|--------------------------------|
|--------------------------------|0-----------------------0-------|
|0---------0---------------------|----------------0---------4-2---|
|------------4---2---------2-0---|------------2-------------------|

 |       |       |       |        |       |       |       |        
|--------------------------------|--------------------------------|
|--------------------------------|0-----------------------0-2-----|
|0---------0---------------------|----------------0---------------|
|------------4---2---------2-0---|------------2-------------------|

 |       |       |       |        |       |       |       |        
|--------------------------------|----------2-----------------0---|
|--------------------------2-----|0-----------4---3---------3-----|
|0---------------2---0-------4---|--------------------------------|
|----------2-0-------------------|--------------------------------|

 |       |       |       |        |       |       |       |        
|2-------------------------------|--------------------------------|
|--------4-------0-------2---2---|------------4---2---------------|
|--------------------------------|0-----------------------0-------|
|--------------------------------|--------------------------------|

 |       |       |       |        |       |       |       |        
|------------------------7---7---|------------------------7---7---|
|--------4---4---7---7-----------|----------------7---7-----------|
|5---5---------------------------|5---5---8---8-------------------|
|--------------------------------|--------------------------------|

 |       |       |       |        |       |       |       |        
|2-------2---2---2-----------2---|2-----------2-----------0-------|
|--------------------------------|--------------------------4-2---|
|--------------------------------|----------------0---------------|
|--------------------------------|--------------------------------|

 |       |       |       |        |       |       |       |        
|------------------------7---7---|------------------------7---7---|
|--------4---4---7---7-----------|----------------7---7-----------|
|5---5---------------------------|5---5---8---8-------------------|
|--------------------------------|--------------------------------|

 |       |       |       |        |       |       |       |        
|6-------------------------------|--------------------------------|
|--------------------------------|--------4-----------------------|
|--------4-------3-------3-------|2-------------------------1-----|
|----------------------------5---|----------------2---4-----------|

 |       |       |       |        |       |       |       |        
|--------------------------------|--------------------------------|
|--------------------------------|------------------------2-1-----|
|2---------2-1-------------------|----------------2-----------4---|
|----------------4---------4-2---|0-----------4-------------------|

 |       |       |       |        |       |       |       |        
|--------------------------------|--------------------------------|
|--------------------------------|2---------------2-------2-------|
|2---------2-1-------------------|----------4-2-----------------2-|
|----------------4---------4-2---|------------------0-------0-----|

 |       |       |       |        |       |       |       |        
|--------------------------------|--------------------------------|
|--------------------------------|--------------------------------|
|----------------2---------------|----------2-----------------0---|
|----------4-2-------------4-2---|0-----------4---3---------3-----|

 |       |       |       |        |       |       |       |        
|--------------------------------|--------------------------------|
|--------------------------------|1---------4-1---2---------1-----|
|2-----------2---4-----------4---|----------------------------4---|
|----------4---------------------|--------------------------------|

 |       |       |       |        |       |       |       |        
|--------------------------------|--------------------------------|
|--------------------------------|------------------------2-------|
|2-------------------------------|----------------2---------------|
|--------4-------0-------2-------|0-------3-----------------------|

 |       |       |       |        |       |       |       |        
|----------------9-------12------|--------------------------------|
|--------9-----------------------|--------------------------------|
|10------------------------------|2-------------------------------|
|--------------------------------|--------------------------------|



Created with TablEdit http://www.tabledit.com/

............................................................
     
Добавлено: 06.12.2013
Другие материалы по этой песне:
  • Аккорды и текст

Страница создана 17.09.2013
http://primanota.ru/shadows/summer-love-59-chords.htm
Привет, Гость.
Предлагаем пройти революционный курс по гитаре.
Подарок от PrimaNota.Ru, забирай!