PrimaNota.ru - самый крупный в мире бесплатный архив песенных текстов, аккордов, табулатур и нот


Shadows - The Most Beautiful Girl - бас-таба, видео

Регистрация Запомнить меня
Войти через:  Facebook Google Twitter Vk Yandex Mail.ru

Shadows - The Most Beautiful Girl - бас-таба, видео

Печатать
Просмотров: 73
s/shadows/The_most_beautiful_girl.btab

Basstab by Jan Bjorklund, Finland  jani_bjorklund@yahoo.se>
You are welcome to request for basstabs!
Bienvenidos a pedirme transcripciones para el bajo!
Fingering and positions as suggested by TablEdit. 

TablEdited by Jan Bjorklund
Tuning : E A D G 	Time Signature: 4/4

 |       |       |       |        |       |       |       |        
|------------12------------------|------------11------------------|
|--------------------------------|--------------------------------|
|----------------------------10--|9---------------------------9---|
|--------------------------------|--------------------------------|

 |       |       |       |        |       |       |       |        
|------------10------------------|------------9-------------------|
|--------------------------------|--------------------------------|
|8---------------------------8---|7-------------------------------|
|--------------------------------|----------------------------8---|

 |       |       |       |        |       |       |       |        
|--------------------------------|------------------------9---11--|
|0-----------0-------------------|----------------9---12----------|
|----------------0---0-------0---|--------0-----------------------|
|--------------------------------|10----------10------------------|

 |       |       |       |        |       |       |       |        
|12------9-----------------------|------------------------2---4---|
|----------------12--------------|----3-------3---5---------------|
|--------------------------------|--------------------------------|
|------------------------10------|3-------------------------------|

 |       |       |       |        |       |       |       |        
|5-----------5-------------------|--------------------------------|
|----------------5---------------|--------------------0-------1---|
|--------------------------------|----3-------4-------------------|
|--------------------------------|--------------------------------|

 |       |       |       |        |       |       |       |        
|--------------------------------|--------------------------------|
|2-----------2-------2-----------|--------2-----------------------|
|----------------2-----------2---|--------------------------------|
|--------------------------------|0---------------0---0---3---4---|

 |       |       |       |        |       |       |       |        
|--------------------------------|----------------------------0---|
|--------------------------------|------------0-------0---4-------|
|0-----------0---0---------------|0-------------------------------|
|--------------------3---0-------|--------------------------------|

 |       |       |       |        |       |       |       |        
|0-----------0-----------0-------|--------------------4-------5---|
|----------------0-----------0---|----3---3---5-------------------|
|--------------------------------|--------------------------------|
|--------------------------------|3-------------------------------|

 |       |       |       |        |       |       |       |        
|5-----------5-------------------|--------------------------------|
|----------------5---------------|------------------------1---3---|
|--------------------------------|3-----------3---3---3-----------|
|--------------------------------|--------------------------------|

 |       |       |       |        |       |       |       |        
|0-----------0---0---------------|--------------------------------|
|--------------------------------|4-----------4---4---------------|
|--------------------------------|--------------------------------|
|--------------------------------|--------------------------------|

 |       |       |       |        |       |       |       |        
|--------------------------------|--------------------------------|
|3-----------3---3-----------2---|----2---------------2-----------|
|--------------------------------|----------------------------3---|
|--------------------------------|------------0-------------------|

 |       |       |       |        |       |       |       |        
|--------------------------------|--------------------------------|
|0-----------0-------------------|0-----------0-----------0---4---|
|----------------0---0-------0---|----------------0---------------|
|--------------------------------|--------------------------------|

 |       |       |       |        |       |       |       |        
|0-----------0-------------------|--------------------------------|
|----------------0-------0-------|------------0---------------0---|
|--------------------------------|--------------------------------|
|--------------------------------|3-------------------3-----------|

 |       |       |       |        |       |       |       |        
|0-----------0-------------------|--------------------------------|
|----------------0-----------0---|--------------------------------|
|--------------------------------|--------------------0-------2---|
|--------------------------------|3-----------3-------------------|

 |       |       |       |        |       |       |       |        
|--------------------------------|--------------------------------|
|--------------------------------|--------------------------------|
|3-----------3-------------------|3-----------3-----------3---4---|
|----------------3-----------3---|----------------3---3-----------|

 |       |       |       |        |       |       |       |        
|--------------------------------|--------------------------------|
|0-----------0-------------------|0-----------0-----------0-------|
|----------------0-----------0---|----------------0-----------4---|
|--------------------------------|--------------------------------|

 |       |       |       |        |       |       |       |        
|--------------------------------|0-----------0-------------------|
|----------------0---0-------4---|----------------0---------------|
|3-----------3-------------------|------------------------0---2---|
|--------------------------------|--------------------------------|

 |       |       |       |        |       |       |       |        
|--------------------------------|--------------------------------|
|--------------------------------|0-----------0-------------------|
|------------------------2---3---|----------------------------2---|
|3-----------3---3---------------|----------------3---3-----------|

 |       |       |       |        |       |       |       |        
|--------------------------------|--------------------------------|
|--------------------------------|--------------------------------|
|3-----------3-----------3---2---|0-----------0---0---0-----------|
|----------------3---------------|----------------------------3---|

 |       |       |       |        |       |       |       |        
|--------------------------------|--------------------------------|
|--------------------------------|--------------------------------|
|0---0-------0-------------------|0-----------0---0---0-----------|
|----------------0-----------0---|----------------------------3---|

 |       |       |       |        |       |       |       |        
|--------------------------------|--------------------------------|
|----------------0-----------0---|0---0-------0---0-------0-------|
|0-----------3-------------------|--------------------------------|
|--------------------------------|--------------------------------|

 |       |       |       |        |       |       |       |        
|0-----------0-------------------|--------------------2---4-------|
|----------------0-------0-------|----3---3---5-------------------|
|--------------------------------|5-------------------------------|
|--------------------------------|--------------------------------|

 |       |       |       |        |       |       |       |        
|5-----------5-------------------|----0-------1-------2-----------|
|----------------5---------------|----------------------------0---|
|--------------------------------|--------------------------------|
|--------------------------------|--------------------------------|

 |       |       |       |        |       |       |       |        
|--------------------------------|--------------------------------|
|2-----------2-------2-----------|--------2-----------------------|
|----------------2-----------2---|--------------------------------|
|--------------------------------|0---------------0---0---3---4---|

 |       |       |       |        |       |       |       |        
|--------------------------------|--------------------------------|
|--------------------------------|----------------0---0---0-------|
|0-------------------------------|0-------3-----------------------|
|------------1---1-----------3---|--------------------------------|

 |       |       |       |        |       |       |       |        
|0-----------0-------------------|--------------------2---4-------|
|----------------0---------------|----3---3---5-------------------|
|--------------------------------|--------------------------------|
|--------------------3-----------|3-------------------------------|

 |       |       |       |        |       |       |       |        
|5-----------5-------------------|--------------------------------|
|----------------5---------------|------------------------1---3---|
|--------------------------------|3-----------3---3---3-----------|
|--------------------------------|--------------------------------|

 |       |       |       |        |       |       |       |        
|0-----------0---0---------------|--------------------------------|
|--------------------------------|4-----------4---4---------------|
|--------------------------------|--------------------------------|
|--------------------------------|--------------------------------|

 |       |       |       |        |       |       |       |        
|--------------------------------|--------------------------------|
|3-----------3---3-----------2---|----2---------------2-----------|
|--------------------------------|----------------------------3---|
|--------------------------------|------------0-------------------|

 |       |       |       |        |       |       |       |        
|--------------------------------|--------------------------------|
|0-----------0-------------------|0-----------0-----------0---4---|
|----------------0---0-------0---|----------------0---------------|
|--------------------------------|--------------------------------|

 |       |       |       |        |       |       |       |        
|0-----------0-------------------|------------------------2---4---|
|----------------0---------------|----3---3---5-------5-----------|
|----------------------------2---|5-------------------------------|
|--------------------3-----------|--------------------------------|

 |       |       |       |        |       |       |       |        
|5-----------5-------------------|--------------------------------|
|----------------5---------------|--------------------------------|
|--------------------------------|3-----------3-------3-----------|
|--------------------------------|--------------------------------|

 |       |       |       |        |       |       |       |        
|------------12------------------|------------11------------------|
|--------------------------------|--------------------------------|
|10--------------------------10--|9---------------------------9---|
|--------------------------------|--------------------------------|

 |       |       |       |        |       |       |       |        
|------------10------------------|--------------------------------|
|--------------------------------|----2---------------------------|
|8---------------------------10--|------------1-------------------|
|--------------------------------|--------------------3-----------|

 |       |       |       |        |       |       |       |        
|--------------------------------|--------------------------------|
|0-----------0-------------------|0-----------------------0---4---|
|----------------0---0-------0---|----------------3---4-----------|
|--------------------------------|--------------------------------|

 |       |       |       |        |       |       |       |        
|0-----------0-------------------|--------------------0-----------|
|----------------0-------0-------|0---3-----------0---------------|
|--------------------------------|----------------------------2---|
|--------------------------------|--------------------------------|

 |       |       |       |        |       |       |       |        
|--------------------------------|--------------------------------|
|--------------------------------|--------------------------------|
|3-----------3-------------------|3-----------3-----------1-------|
|----------------3---------------|----------------3---------------|

 |       |       |       |        |       |       |       |        
|------------12------------------|------------11------------------|
|--------------------------------|--------------------------------|
|10--------------------------10--|9---------------------------9---|
|--------------------------------|--------------------------------|


Created with TablEdit http://www.tabledit.com/

............................................................
     
Добавлено: 26.08.2013
Другие материалы по этой песне:
  • Аккорды и текст

Страница создана 26.08.2013
http://primanota.ru/shadows/the-most-beautiful-girl-chords.htm
Привет, Гость.
Предлагаем пройти революционный курс по гитаре.
Подарок от PrimaNota.Ru, забирай!