PrimaNota.ru - самый крупный в мире бесплатный архив песенных текстов, аккордов, табулатур и нот


Shadows - The Breeze And I - таба, бас-таба, видео

Регистрация Запомнить меня
Войти через:  Facebook Google Twitter Vk Yandex Mail.ru

Shadows - The Breeze And I - таба, бас-таба, видео

Печатать
Просмотров: 82
THE BREEZE AND I

As recorded by The Shadows
(From the 1965 Album GREATEST HITS, VOL. 2 )

Music by  Ernesto Lecuona & Al Stillman 

Transcribed by Slowhand


Gtr I (E A D G B E) - 'Hank Marvin - Electric Guitar'
Gtr II (E A D G B E) - 'Bruce Welch - Acoustic Guitar'


  Q=129
          E/B  E         E/B  E         E/B
 4/4
  Gtr II (Ac. Gtr.)
  H    Q  Q    H    +Q   Q    H    +Q   Q
|---------7--|-7----(7)--7--|-7----(7)--7--|
|---------9--|-9----(9)--9--|-9----(9)--9--|
|---------9--|-9----(9)--9--|-9----(9)--9--|
|---------9--|-9----(9)--9--|-9----(9)--9--|
|------------|-7----(7)-----|-7----(7)-----|
|---------7--|-----------7--|-----------7--|


            E/B  E         E/B    E
  Gtr I (El. Gtr.)
  W              H     Q   Q      H.           Q
|--------------|--------------||------------------|
|--------------|--------------||o--------------7--|
|--------------|--------------||--9---------------|
|--------------|-----------9--||------------------|
|--------------|--------------||o-----------------|
|--------------|--------------||------------------|
|
| Gtr II
|                                     |-3-|
| H    +Q   Q    H    +Q   Q      Q   E E E Q  Q
|-7----(7)--7--|-7----(7)--7--||--7---7-7-7-7--7--|
|-9----(9)--9--|-9----(9)--9--||o-9---9-9-9-9--9--|
|-9----(9)--9--|-9----(9)--9--||--9---9-9-9-9--9--|
|-9----(9)--9--|-9----(9)--9--||--9---9-9-9-9--9--|
|-7----(7)-----|-7----(7)-----||o-7---7-7-7-7--7--|
|-----------7--|-----------7--||------------------|


                               ~~~~~~~~~~~~~~~~~~~~~~~
  H        H       E E E   E   H       +H         +Q   E  S  S
|----------7-----|---7---------------|-------------------------|
|-9--------------|-9---9---7---------|-------------------------|
|----------------|-------------9-----|-(9)--------(9)----------|
|----------------|-------------------|-----------------9-10-11-|
|----------------|-------------------|-------------------------|
|----------------|-------------------|-------------------------|
|
|    |-3-|             |--3--|              |-3-|
| Q  E E E Q  Q    Q   E E   E Q  Q     Q   E E E  Q   Q
|-7--7-7-7-7--7--|-7---7-7---7-7--7--|--7---7-7-7--7---7-------|
|-9--9-9-9-9--9--|-9---9-9---9-9--9--|--9---9-9-9--9---9-------|
|-9--9-9-9-9--9--|-9---9-9---9-9--9--|--9---9-9-9--9---9-------|
|-9--9-9-9-9--9--|-9---9-9---9-9--9--|--9---9-9-9--9---9-------|
|-7--7-7-7-7--7--|-7---7-7---7-7--7--|--7---7-7-7--7---7-------|
|----------------|-------------------|-------------------------|


  Dm                                            E
                                                ~
   W                 +H          E  E  +E   E   W
|-----------------|---------------------------|----------------|
|-----------------|---------------------------|----------------|
|-----------------|---------------------------|----------------|
|-12--------------|-(12)--------10-12-(12)-10-|-9--------------|
|-----------------|---------------------------|----------------|
|-----------------|---------------------------|----------------|
|
|     |-3-|               |-3-|                    |-3-|
|  Q  E E E Q  Q      Q   E E E  Q      Q       Q  E E E Q  Q
|--5--5-5-5-5--5--|---5---5-5-5--5------5-----|-7--7-7-7-7--7--|
|--6--6-6-6-6--6--|---6---6-6-6--6------6-----|-9--9-9-9-9--9--|
|--7--7-7-7-7--7--|---7---7-7-7--7------7-----|-9--9-9-9-9--9--|
|--7--7-7-7-7--7--|---7---7-7-7--7------7-----|-9--9-9-9-9--9--|
|--5--5-5-5-5--5--|---5---5-5-5--5------5-----|-7--7-7-7-7--7--|
|-----------------|---------------------------|----------------|


   ~~~
  +Q.      E   Q  Q    H.            Q     H         H
|--------------------|------------------|-------------------|
|--------------------|------------------|-----------12------|
|--------------------|-9------------11--|-13----------------|
|-(9)-------------9--|------------------|-------------------|
|--------------------|------------------|-------------------|
|--------------------|------------------|-------------------|
|
|      |--3--|             |-3-|              |-3-|
|  Q   E E   E Q  Q    Q   E E E Q   Q     Q  E E E  Q  Q
|--7---7-7---7-7--7--|-7---7-7-7-7---7--|--7--7-7-7--7--7---|
|--9---9-9---9-9--9--|-9---9-9-9-9---9--|--9--9-9-9--9--9---|
|--9---9-9---9-9--9--|-9---9-9-9-9---9--|--9--9-9-9--9--9---|
|--9---9-9---9-9--9--|-9---9-9-9-9---9--|--9--9-9-9--9--9---|
|--7---7-7---7-7--7--|-7---7-7-7-7---7--|--7--7-7-7--7--7---|
|--------------------|------------------|-------------------|


                                                  Dm
                  ~~~~~~~~~~~~~~~~~~~~~~~
   E  E  E    E   H       +H         +Q   E.  S    W
|-----------------------|-----------------------|------------------|
|----12-----------------|-----------------------|------------------|
|-13----13---11---9-----|-(9)--------(9)--------|------------------|
|-----------------------|-----------------9--10-|-12---------------|
|-----------------------|-----------------------|------------------|
|-----------------------|-----------------------|------------------|
|
|        |--3---|              |-3-|                  |-3-|
|  Q     E E    E Q  Q     Q   E E E  Q   Q        Q  E E E Q  Q
|--7-----7-7----7-7--7--|--7---7-7-7--7---7-----|--5--5-5-5-5--5---|
|--9-----9-9----9-9--9--|--9---9-9-9--9---9-----|--6--6-6-6-6--6---|
|--9-----9-9----9-9--9--|--9---9-9-9--9---9-----|--7--7-7-7-7--7---|
|--9-----9-9----9-9--9--|--9---9-9-9--9---9-----|--7--7-7-7-7--7---|
|--7-----7-7----7-7--7--|--7---7-7-7--7---7-----|--5--5-5-5-5--5---|
|-----------------------|-----------------------|------------------|


                               E
                               ~~~~~~~~~~~~~~~~~~~~~
   +H          E  E  +S   E.   W                +H         H
|----------------------------|----------------|------------------||
|----------------------------|----------------|------------------||
|----------------------------|----------------|------------------||
|-(12)--------10-12-(12)-10--|-9--------------|-(9)--------------||
|----------------------------|----------------|------------------||
|----------------------------|----------------|------------------||
|
|       |-3-|                     |-3-|              |-3-|
|   Q   E E E  Q      Q        Q  E E E Q  Q     Q   E E E Q  Q
|---5---5-5-5--5------5------|-7--7-7-7-7--7--|--7---7-7-7-7--7--||
|---6---6-6-6--6------6------|-9--9-9-9-9--9--|--9---9-9-9-9--9--||
|---7---7-7-7--7------7------|-9--9-9-9-9--9--|--9---9-9-9-9--9--||
|---7---7-7-7--7------7------|-9--9-9-9-9--9--|--9---9-9-9-9--9--||
|---5---5-5-5--5------5------|-7--7-7-7-7--7--|--7---7-7-7-7--7--||
|----------------------------|----------------|------------------||


  F#m
   H              Q     Q       Q        H           Q
|----------------------------|--9-------12----------------|
|-----------------9----10----|----------------------14----|
|-11-------------------------|----------------------------|
|----------------------------|----------------------------|
|----------------------------|----------------------------|
|----------------------------|----------------------------|
|
|  E  S  S  E  E  E  E  E  E    E  S  S  E  E  E  E  E  E
|--9--9--9--9--9--9--9--9--9-|--9--9--9--9--9--9--9--9--9-|
|-10-10-10-10-10-10-10-10-10-|-10-10-10-10-10-10-10-10-10-|
|-11-11-11-11-11-11-11-11-11-|-11-11-11-11-11-11-11-11-11-|
|-11-11-11-11-11-11-11-11-11-|-11-11-11-11-11-11-11-11-11-|
|--9--9--9--9--9--9--9--9--9-|--9--9--9--9--9--9--9--9--9-|
|----------------------------|----------------------------|


  E
   H         E  E E  E   H          E E  E E
|-11---------9-11-9----|----------------------|
|-------------------12-|-9------------9-------|
|----------------------|-----------11---11-9--|
|----------------------|----------------------|
|----------------------|----------------------|
|----------------------|----------------------|
|
|  E S S E E E  E E  E   E S S E E  E E  E E
|--7-7-7-7-7-7--7-7--7-|-7-7-7-7-7--7-7--7-7--|
|--9-9-9-9-9-9--9-9--9-|-9-9-9-9-9--9-9--9-9--|
|--9-9-9-9-9-9--9-9--9-|-9-9-9-9-9--9-9--9-9--|
|--9-9-9-9-9-9--9-9--9-|-9-9-9-9-9--9-9--9-9--|
|--7-7-7-7-7-7--7-7--7-|-7-7-7-7-7--7-7--7-7--|
|----------------------|----------------------|


  A                         B
   ~~~~~~~~~~~~~~~                                 ~~
   H          +Q     E  E    H          H          W
|-------------------------|---------------------|-----------------|
|-------------------------|---------------------|-----------------|
|-------------------------|---------------------|-13--------------|
|-11---------(11)---11-12-|-13------------------|-----------------|
|-------------------------|------------14-------|-----------------|
|-------------------------|---------------------|-----------------|
|
|                                                     |-3-|
|  E S S E E   E  E  E  E    E S S E E  E E E E    Q  E E E Q  Q
|--5-5-5-5-5---5--5--5--5-|--7-7-7-7-7--7-7-7-7-|--7--7-7-7-7--7--|
|--5-5-5-5-5---5--5--5--5-|--7-7-7-7-7--7-7-7-7-|--9--9-9-9-9--9--|
|--6-6-6-6-6---6--6--6--6-|--8-8-8-8-8--8-8-8-8-|--9--9-9-9-9--9--|
|--7-7-7-7-7---7--7--7--7-|--9-9-9-9-9--9-9-9-9-|--9--9-9-9-9--9--|
|--7-7-7-7-7---7--7--7--7-|--9-9-9-9-9--9-9-9-9-|--7--7-7-7-7--7--|
|--5-5-5-5-5---5--5--5--5-|--7-7-7-7-7--7-7-7-7-|-----------------|


                      F#m
    ~~~~
   +Q   Q     H        H              Q     Q
|-------------------|----------------------------|
|-------------------|----------------------------|
|-(13)--------------|----------------13----14----|
|-------------------|-16-------------------------|
|-------------------|----------------------------|
|-------------------|----------------------------|
|
|       |-3-|
|   Q   E E E Q  Q     E  S  S  E  E  E  E  E  E
|---7---7-7-7-7--7--|--9--9--9--9--9--9--9--9--9-|
|---9---9-9-9-9--9--|-10-10-10-10-10-10-10-10-10-|
|---9---9-9-9-9--9--|-11-11-11-11-11-11-11-11-11-|
|---9---9-9-9-9--9--|-11-11-11-11-11-11-11-11-11-|
|---7---7-7-7-7--7--|--9--9--9--9--9--9--9--9--9-|
|-------------------|----------------------------|


                               E
   Q        H           Q       H          E.    S  +E   E
|----------------------------|-16---------14----16-(16)-14-|
|-14-------17----------16----|-----------------------------|
|----------------------------|-----------------------------|
|----------------------------|-----------------------------|
|----------------------------|-----------------------------|
|----------------------------|-----------------------------|
|
|  E  S  S  E  E  E  E  E  E    E S S E E  E  E      E   E
|--9--9--9--9--9--9--9--9--9-|--7-7-7-7-7--7--7------7---7-|
|-10-10-10-10-10-10-10-10-10-|--9-9-9-9-9--9--9------9---9-|
|-11-11-11-11-11-11-11-11-11-|--9-9-9-9-9--9--9------9---9-|
|-11-11-11-11-11-11-11-11-11-|--9-9-9-9-9--9--9------9---9-|
|--9--9--9--9--9--9--9--9--9-|--7-7-7-7-7--7--7------7---7-|
|----------------------------|-----------------------------|


                                      A
   E.    S  +E   E  E.    S  +E   E    H          +Q     Q
|-----------------------------------|------------------------|
|-16----14-(14)---------------------|------------------------|
|---------------16-13---------------|------------------------|
|------------------------16-(16)-14-|-11---------(11)---11---|
|-----------------------------------|------------------------|
|-----------------------------------|------------------------|
|
|  E  S  S   E   E  E  E      E   E    E S S E E   E  E  E E
|--7--7--7---7---7--7--7------7---7-|--5-5-5-5-5---5--5--5-5-|
|--9--9--9---9---9--9--9------9---9-|--5-5-5-5-5---5--5--5-5-|
|--9--9--9---9---9--9--9------9---9-|--6-6-6-6-6---6--6--6-6-|
|--9--9--9---9---9--9--9------9---9-|--7-7-7-7-7---7--7--7-7-|
|--7--7--7---7---7--7--7------7---7-|--7-7-7-7-7---7--7--7-7-|
|-----------------------------------|--5-5-5-5-5---5--5--5-5-|


  B                     E          E/B
                         ~~
   H          H          W
|---------------------|----------------|
|---------------------|----------------|
|---------------------|----------------|
|-13------------------|-14-------------|
|------------14-------|----------------|
|---------------------|----------------|
|
|  E S S E E  E E E E    H    +Q   Q
|--7-7-7-7-7--7-7-7-7-|--7----(7)--7---|
|--7-7-7-7-7--7-7-7-7-|--9----(9)--9---|
|--8-8-8-8-8--8-8-8-8-|--9----(9)--9---|
|--9-9-9-9-9--9-9-9-9-|--9----(9)--9---|
|--9-9-9-9-9--9-9-9-9-|--7----(7)------|
|--7-7-7-7-7--7-7-7-7-|------------7---|


                                  1.
  E            E/B  E         E/B  E         E/B
   ~~
   E E Q   H        W              H     Q   Q
|-----------------|--------------|---------------||
|-----------------|--------------|--------------o||
|-----------------|--------------|---------------||
|-14--------------|--------------|-----------9---||
|-----------------|--------------|--------------o||
|-----------------|--------------|---------------||
|
|  H      +Q   Q    H    +Q   Q    H    +Q   Q
|--7------(7)--7--|-7----(7)--7--|-7----(7)--7---||
|--9------(9)--9--|-9----(9)--9--|-9----(9)--9--o||
|--9------(9)--9--|-9----(9)--9--|-9----(9)--9---||
|--9------(9)--9--|-9----(9)--9--|-9----(9)--9---||
|--7------(7)-----|-7----(7)-----|-7----(7)-----o||
|--------------7--|-----------7--|-----------7---||


  2.
  E         E/B    E
  Gtr I
  H     Q    Q      S  S  S  S  S  E.      +Q    Q
|---------------||----------------------------------|
|---------------||-17-17-17-17-17-17------(17)--19--|
|-----------16--||----------------------------------|
|---------------||----------------------------------|
|---------------||----------------------------------|
|---------------||----------------------------------|
|
|                               |---3---|
| H    +Q    Q      Q           E     E E   Q    Q
|-7----(7)---7--||--7-----------7-----7-7---7----7--|
|-9----(9)---9--||--9-----------9-----9-9---9----9--|
|-9----(9)---9--||--9-----------9-----9-9---9----9--|
|-9----(9)---9--||--9-----------9-----9-9---9----9--|
|-7----(7)------||--7-----------7-----7-7---7----7--|
|------------7--||----------------------------------|


   S  S  E  +Q       H        E  E  E    E    H        +H          +Q    Q
|-16-16-16-(16)-----19-----|----19------------------|-----------------------|
|--------------------------|-21----21---19---17-----|-(17)--------(17)------|
|--------------------------|------------------------|-------------------16--|
|--------------------------|------------------------|-----------------------|
|--------------------------|------------------------|-----------------------|
|--------------------------|------------------------|-----------------------|
|
|            |-3--|                 |--3---|                |-3-|
|  Q         E  E E  Q  Q     Q     E E    E  Q  Q      Q   E E E   Q    Q
|--7---------7--7-7--7--7--|--7-----7-7----7--7--7--|---7---7-7-7---7----7--|
|--9---------9--9-9--9--9--|--9-----9-9----9--9--9--|---9---9-9-9---9----9--|
|--9---------9--9-9--9--9--|--9-----9-9----9--9--9--|---9---9-9-9---9----9--|
|--9---------9--9-9--9--9--|--9-----9-9----9--9--9--|---9---9-9-9---9----9--|
|--7---------7--7-7--7--7--|--7-----7-7----7--7--7--|---7---7-7-7---7----7--|
|--------------------------|------------------------|-----------------------|


  Dm                                         E
   ~~~~~~~~~~~~~~~~~~~~~~                     ~~
   W                 +H          E  Q    E    W
|-----------------|------------------------|-----------------|
|-15--------------|-(15)--------13-15---13-|-12--------------|
|-----------------|------------------------|-----------------|
|-----------------|------------------------|-----------------|
|-----------------|------------------------|-----------------|
|-----------------|------------------------|-----------------|
|
|     |-3-|               |-3-|                  |-3-|
|  Q  E E E Q  Q      Q   E E E  Q    Q       Q  E E E Q  Q
|--5--5-5-5-5--5--|---5---5-5-5--5----5----|--7--7-7-7-7--7--|
|--6--6-6-6-6--6--|---6---6-6-6--6----6----|--9--9-9-9-9--9--|
|--7--7-7-7-7--7--|---7---7-7-7--7----7----|--9--9-9-9-9--9--|
|--7--7-7-7-7--7--|---7---7-7-7--7----7----|--9--9-9-9-9--9--|
|--5--5-5-5-5--5--|---5---5-5-5--5----5----|--7--7-7-7-7--7--|
|-----------------|------------------------|-----------------|


                         Dm
    ~~~~                  ~~~~~~~~~~~~~~~~~~~~~~
   +Q.      E   Q   Q     W                 +H          E  Q    E
|----------------------|-----------------|-------------------------|
|-(12)-----------------|-----------------|-------------------------|
|----------------------|-----------------|-------------------------|
|----------------------|-12--------------|-(12)--------10-12---10--|
|------------------14--|-----------------|-------------------------|
|----------------------|-----------------|-------------------------|
|
|       |--3--|              |-3-|               |-3-|
|   Q   E E   E Q   Q     Q  E E E Q  Q      Q   E E E  Q    Q
|---7---7-7---7-7---7--|--5--5-5-5-5--5--|---5---5-5-5--5----5-----|
|---9---9-9---9-9---9--|--6--6-6-6-6--6--|---6---6-6-6--6----6-----|
|---9---9-9---9-9---9--|--7--7-7-7-7--7--|---7---7-7-7--7----7-----|
|---9---9-9---9-9---9--|--7--7-7-7-7--7--|---7---7-7-7--7----7-----|
|---7---7-7---7-7---7--|--5--5-5-5-5--5--|---5---5-5-5--5----5-----|
|----------------------|-----------------|-------------------------|


                                        Dm
  ~~~~~~~~~~~~~~~~~~~~~                 ~
  W                +Q.      E   Q  Q    W
|----------------|--------------------|-----------------|
|----------------|--------------------|-----------------|
|----------------|--------------------|-----------------|
|-9--------------|-(9)----------------|-----------------|
|----------------|--------------------|-5---------------|
|----------------|-----------------7--|-----------------|
|
|    |-3-|              |--3--|            |-3-|
| Q  E E E Q  Q     Q   E E   E Q  Q    Q  E E E Q  Q
|-7--7-7-7-7--7--|--7---7-7---7-7--7--|-5--5-5-5-5--5---|
|-9--9-9-9-9--9--|--9---9-9---9-9--9--|-6--6-6-6-6--6---|
|-9--9-9-9-9--9--|--9---9-9---9-9--9--|-7--7-7-7-7--7---|
|-9--9-9-9-9--9--|--9---9-9---9-9--9--|-7--7-7-7-7--7---|
|-7--7-7-7-7--7--|--7---7-7---7-7--7--|-5--5-5-5-5--5---|
|----------------|--------------------|-----------------|


                           E
   ~~~                     ~~~~~~~~~~~~~~~~~~~~~
  +H         E. S +S  E.   W                +Q.      E   H
|------------------------|----------------|---------------------|
|------------------------|----------------|---------------------|
|------------------------|----------------|---------------------|
|------------------------|----------------|---------------------|
|-(5)-----------5-(5)----|----------------|---------------------|
|------------8--------8--|-7--------------|-(7)-----------------|
|
|      |-3-|                  |-3-|              |--3--|
|  Q   E E E Q     Q       Q  E E E Q  Q     Q   E E   E Q  Q
|--5---5-5-5-5-----5-----|-7--7-7-7-7--7--|--7---7-7---7-7--7---|
|--6---6-6-6-6-----6-----|-9--9-9-9-9--9--|--9---9-9---9-9--9---|
|--7---7-7-7-7-----7-----|-9--9-9-9-9--9--|--9---9-9---9-9--9---|
|--7---7-7-7-7-----7-----|-9--9-9-9-9--9--|--9---9-9---9-9--9---|
|--5---5-5-5-5-----5-----|-7--7-7-7-7--7--|--7---7-7---7-7--7---|
|------------------------|----------------|---------------------|


  Gtr II
     |-3-|
  Q  E E E Q  Q    Q  Q  H
|-7--7-7-7-7--7--|-7----------*|
|-9--9-9-9-9--9--|-9----------*|
|-9--9-9-9-9--9--|-9----------*|
|-9--9-9-9-9--9--|-9----------*|
|-7--7-7-7-7--7--|-7----------*|
|----------------|------------*|


Duration Legend
---------------
W - whole; H - half; Q - quarter; E - 8th; S - 16th; T - 32nd; X - 64th; a - acciaccatura
+ - note tied to previous; . - note dotted; .. - note double dotted
Uncapitalized letters represent notes that are staccato (1/2 duration)
Irregular groupings are notated above the duration line
Duration letters will always appear directly above the note/fret number it represents the
duration for.  Duration letters with no fret number below them represent rests.  Multi-
bar rests are notated in the form Wxn, where n is the number of bars to rest for.  Low
melody durations appear below the staff

Tablature Legend
----------------
 h   - hammer-on
 p   - pull-off
 b   - bend
 pb  - pre-bend
 r   - bend release (if no number after the r, then release immediately)
 /\  - slide into or out of (from/to "nowhere")
 s   - legato slide
 S   - shift slide
  - natural harmonic
[n]  - artificial harmonic
n(n) - tapped harmonic
 ~   - vibrato
 tr  - trill
 T   - tap
 TP  - trem. picking
 PM  - palm muting
\n/  - tremolo bar dip; n = amount to dip
 \n  - tremolo bar down
 n/  - tremolo bar up
/n\  - tremolo bar inverted dip
 =   - hold bend; also acts as connecting device for hammers/pulls
 <>  - volume swell (louder/softer)
 x   - on rhythm slash represents muted slash
 o   - on rhythm slash represents single note slash

Misc Legend
-----------
 |  - bar
||  - double bar
||o - repeat start
o|| - repeat end
*|  - double bar (ending)
 :  - bar (freetime)
 $  - Segno
 &  - Coda
Tempo markers -  = BPM(8/16=s8/s16), where s8 = swing 8ths, s16 = swing 16ths

Добавлено: 09.12.2015
Другие материалы по этой песне:

Страница создана 15.07.2013
http://primanota.ru/shadows/the-breeze-and-i-chords.htm
Привет, Гость.
Предлагаем пройти революционный курс по гитаре.
Подарок от PrimaNota.Ru, забирай!