PrimaNota.ru - самый крупный в мире бесплатный архив песенных текстов, аккордов, табулатур и нот


Shadows - The Time Is Tight - бас-таба, видео

Регистрация Запомнить меня
Войти через:  Facebook Google Twitter Vk Yandex Mail.ru

Shadows - The Time Is Tight - бас-таба, видео

Печатать
Просмотров: 77
s/shadows/The_time_is_tight.btab

Basstab by Jan Bjorklund, Finland  jani_bjorklund@yahoo.se>
You are welcome to request for basstabs!
Bienvenidos a pedirme transcripciones para el bajo!
Fingering and positions as suggested by TablEdit. 

TablEdited by Jan Bjorklund
Tuning : E A D G 	Time Signature: 4/4

 |       |       |       |        |       |       |       |        
|--------------------------------|--------------------------------|
|--------------------------------|--------------------------------|
|--------0-----------------------|--------------------------------|
|--------------------------------|--------------------------------|

 |       |       |       |        |       |       |       |        
|--------------------------------|--------------------------------|
|--------------------------------|--------------------------------|
|--------------------------------|----3---------------------------|
|--------------------------------|--------------------------------|

 |       |       |       |        |       |       |       |        
|--------------------------------|--------------------------------|
|--------2-----------------------|------------0-------------------|
|--------------------------------|--------------------------------|
|--------------------------------|--------------------------------|

 |       |       |       |        |       |       |       |        
|----2---------------------------|------------1-------------------|
|--------------------------------|--------------------------------|
|--------------------------------|--------------------------------|
|--------------------------------|--------------------------------|

 |       |       |       |        |       |       |       |        
|----------0---------------------|--------------------------------|
|--------------------------------|--------4-----------------------|
|--------------------------------|--------------------------------|
|--------------------------------|--------------------------------|

 |       |       |       |        |       |       |       |        
|--------------------------------|--------------------------------|
|--------3-----------------------|----------------2---------------|
|--------------------------------|--------------------------------|
|--------------------------------|--------------------------------|

 |       |       |       |        |       |       |       |        
|--------------------------------|--------------------------------|
|--------------------------------|--------------------------------|
|--------------------------------|--------------------------------|
|----------------3---------------|--------------------------------|

 |       |       |       |        |       |       |       |        
|--------------------------------|--------------------------------|
|--------------------------------|--------------------------------|
|--------------------------------|3-------3---0---3---0-------3---|
|--------------------------------|------------------------3-------|

 |       |       |       |        |       |       |       |        
|--------------------------------|--------------------------------|
|--------------------------------|--------------------------------|
|----0-------3-------0-------0---|3-------3---0---3---0-------3---|
|--------3---------------3-------|------------------------3-------|

 |       |       |       |        |       |       |       |        
|--------------------------------|--------------------------------|
|--------------------------------|--------------------------------|
|----0-------3-------0-------0---|3-------3---0---3---0-------3---|
|--------3---------------3-------|------------------------3-------|

 |       |       |       |        |       |       |       |        
|--------------------------------|--------------------------------|
|--------------------------------|--------------------------------|
|----0-------3-------0-------0---|3-------3---0---3---0-------3---|
|--------3---------------3-------|------------------------3-------|

 |       |       |       |        |       |       |       |        
|--------------------------------|--------------------------------|
|--------------------------------|--------------------------------|
|----0-------3-------0-------0---|3-------3---0---3---0-------3---|
|--------3---------------3-------|------------------------3-------|

 |       |       |       |        |       |       |       |        
|--------------------------------|--------------------------------|
|--------------------------------|--------------------------------|
|----0-------3-------0-------0---|3-------3---0---3---0-------3---|
|--------3---------------3-------|------------------------3-------|

 |       |       |       |        |       |       |       |        
|--------------------------------|--------------------------------|
|--------------------------------|--------------------------------|
|----0-------3-------0-------0---|3-------3---0---3---0-------3---|
|--------3---------------3-------|------------------------3-------|

 |       |       |       |        |       |       |       |        
|--------------------------------|--------------------------------|
|--------------------------------|3-------3---0---3---0-------3---|
|----0-------3-------0-------0---|------------------------3-------|
|--------3---------------3-------|--------------------------------|

 |       |       |       |        |       |       |       |        
|--------------------------------|--------------------------------|
|----0-------3-------0-------0---|3-------3---0---3---0-------3---|
|--------3---------------3-------|------------------------3-------|
|--------------------------------|--------------------------------|

 |       |       |       |        |       |       |       |        
|--------------------------------|--------------------------------|
|----0-------3-------0-------0---|--------------------------------|
|--------3---------------3-------|3-------3---0---3---0-------3---|
|--------------------------------|------------------------3-------|

 |       |       |       |        |       |       |       |        
|--------------------------------|--------------------------------|
|--------------------------------|--------------------------------|
|----0-------3-------0-------0---|3-------3---0---3---0-------3---|
|--------3---------------3-------|------------------------3-------|

 |       |       |       |        |       |       |       |        
|--------------------------------|--------------------------------|
|--------------------------------|--------------------------------|
|----0-------3-------0-------0---|3-------3---0---3---0-------3---|
|--------3---------------3-------|------------------------3-------|

 |       |       |       |        |       |       |       |        
|--------------------------------|--------------------------------|
|--------------------------------|--------------------------------|
|----0-------3-------0-------0---|3-------3---0---3---0-------3---|
|--------3---------------3-------|------------------------3-------|

 |       |       |       |        |       |       |       |        
|--------------------------------|--------------------------------|
|--------------------------------|--------------------------------|
|----0-------3-------0-------0---|3-------3---0---3---0-------3---|
|--------3---------------3-------|------------------------3-------|

 |       |       |       |        |       |       |       |        
|--------------------------------|--------------------------------|
|--------------------------------|3-------3---0---3---0-------3---|
|----0-------3-------0-------0---|------------------------3-------|
|--------3---------------3-------|--------------------------------|

 |       |       |       |        |       |       |       |        
|--------------------------------|--------------------------------|
|----0-------3-------0-------0---|3-------3---0---3---0-------3---|
|--------3---------------3-------|------------------------3-------|
|--------------------------------|--------------------------------|

 |       |       |       |        |       |       |       |        
|--------------------------------|--------------------------------|
|----0-------3-------0-------0---|--------------------------------|
|--------3---------------3-------|3-------3---0---3---0-------3---|
|--------------------------------|------------------------3-------|

 |       |       |       |        |       |       |       |        
|--------------------------------|--------------------------------|
|--------------------------------|--------------------------------|
|----0-------3-------0-------0---|3-------3---0---3---0-------3---|
|--------3---------------3-------|------------------------3-------|

 |       |       |       |        |       |       |       |        
|--------------------------------|--------------------------------|
|--------------------------------|------------0-------------------|
|----0-------3-------0-------0---|------------------------1---2---|
|--------3---------------3-------|3---3---0-------3---3-----------|

 |       |       |       |        |       |       |       |        
|--------------------------------|--------------------------------|
|0---0-------------------0-------|------------0-------------------|
|--------2-----------------------|------------------------1---2---|
|------------3---3---------------|3---3---0-------3---3-----------|

 |       |       |       |        |       |       |       |        
|--------------------------------|--------------------------------|
|0---0-------------------0-------|------------0-------------------|
|--------2-----------------------|------------------------1---2---|
|------------3---3-----------3---|3---3---0-------3---3-----------|

 |       |       |       |        |       |       |       |        
|--------------------------------|--------------------------------|
|0---0-------------------0-------|------------0-------------------|
|--------2-----------------------|------------------------1---2---|
|------------3---3---------------|3---3---0-------3---3-----------|

 |       |       |       |        |       |       |       |        
|--------------------------------|--------------------------------|
|------------------------0---0---|--------------------------------|
|--------------------------------|3-------3---0---3---0-------3---|
|3---3---1---1---0---0-----------|------------------------3-------|

 |       |       |       |        |       |       |       |        
|--------------------------------|--------------------------------|
|--------------------------------|--------------------------------|
|----0-------3-------0-------0---|3-------3---0---3---0-------3---|
|--------3---------------3-------|------------------------3-------|

 |       |       |       |        |       |       |       |        
|--------------------------------|--------------------------------|
|--------------------------------|--------------------------------|
|----0-------3-------0-------0---|3-------3---0---3---0-------3---|
|--------3---------------3-------|------------------------3-------|

 |       |       |       |        |       |       |       |        
|--------------------------------|--------------------------------|
|--------------------------------|3-------3---0---3---0-------3---|
|----0-------3-------0-------0---|------------------------3-------|
|--------3---------------3-------|--------------------------------|

 |       |       |       |        |       |       |       |        
|--------------------------------|--------------------------------|
|----0-------3-------0-------0---|3-------3---0---3---0-------3---|
|--------3---------------3-------|------------------------3-------|
|--------------------------------|--------------------------------|

 |       |       |       |        |       |       |       |        
|--------------------------------|--------------------------------|
|----0-------3-------0-------0---|--------------------------------|
|--------3---------------3-------|3-------3---0---3---0-------3---|
|--------------------------------|------------------------3-------|

 |       |       |       |        |       |       |       |        
|--------------------------------|--------------------------------|
|--------------------------------|--------------------------------|
|----0-------3-------0-------0---|3-------3---0---3---0-------3---|
|--------3---------------3-------|------------------------3-------|

 |       |       |       |        |       |       |       |        
|--------------------------------|--------------------------------|
|--------------------------------|--------------------------------|
|----0-------3-------0-------0---|3-------3---0---3---0-------3---|
|--------3---------------3-------|------------------------3-------|

 |       |       |       |        |       |       |       |        
|--------------------------------|--------------------------------|
|--------------------------------|--------------------------------|
|----0-------3-------0-------0---|3-------3---0---3---0-------3---|
|--------3---------------3-------|------------------------3-------|

 |       |       |       |        |       |       |       |        
|--------------------------------|--------------------------------|
|--------------------------------|--------------------------------|
|----0-------3-------0-------0---|3-------3---0---3---0-------3---|
|--------3---------------3-------|------------------------3-------|

 |       |       |       |        |       |       |       |        
|--------------------------------|--------------------------------|
|--------------------------------|--------------------------------|
|----0-------3-------0-------0---|3-------3---0---3---0-------3---|
|--------3---------------3-------|------------------------3-------|

 |       |       |       |        |       |       |       |        
|--------------------------------|--------------------------------|
|--------------------------------|3-------3---0---3---0-------3---|
|----0-------3-------0-------0---|------------------------3-------|
|--------3---------------3-------|--------------------------------|

 |       |       |       |        |       |       |       |        
|--------------------------------|--------------------------------|
|----0-------3-------0-------0---|--------3---0---3---0-------3---|
|--------3---------------3-------|------------------------3-------|
|--------------------------------|--------------------------------|

 |       |       |       |        |       |       |       |        
|--------------------------------|--------------------------------|
|----0-------3-------0-------0---|--------------------------------|
|--------3---------------3-------|3-------3---0---3---0-------3---|
|--------------------------------|------------------------3-------|

 |       |       |       |        |       |       |       |        
|--------------------------------|--------------------------------|
|--------------------------------|--------------------------------|
|----0-------3-------0-------0---|3-------3---0---3---0-------3---|
|--------3---------------3-------|------------------------3-------|

 |       |       |       |        |       |       |       |        
|--------------------------------|0---------------------------0---|
|--------------------------------|--------------------0-2---------|
|----0-------3-------0-------0---|----------------2---------------|
|--------3---------------3-------|------------3-------------------|

 |       |       |       |        |       |       |       |        
|------------------------5-------|0-------------------------------|
|--5-5---2-------5---------------|--------------------0---2---0---|
|------------5-------------------|----------------2---------------|
|--------------------------------|------------3-------------------|

 |       |       |       |        |       |       |       |        
|0---0---------------------------|0-------------------------------|
|--------2---0---3---2---0-------|--------------------0---2---0---|
|----------------------------2---|----------------2---------------|
|--------------------------------|------------3-------------------|

 |       |       |       |        |       |       |       |        
|0---0-----------0---------------|0---------------------------0---|
|--------2---0-----------4-------|--------------------0---2-------|
|--------------------------------|----------------2---------------|
|--------------------------------|------------3-------------------|

 |       |       |       |        |       |       |       |        
|--------------------------------|--------------------------------|
|--------------------------------|--------------------------------|
|------------1-------3-----------|3-------3---0---3---0-------3---|
|----3---------------------------|------------------------3-------|

 |       |       |       |        |       |       |       |        
|--------------------------------|--------------------------------|
|--------------------------------|--------------------------------|
|----0-------3-------0-------0---|3-------3---0---3---0-------3---|
|--------3---------------3-------|------------------------3-------|

 |       |       |       |        |       |       |       |        
|--------------------------------|--------------------------------|
|--------------------------------|--------------------------------|
|----0-------3-------0-------0---|3-------3---0---3---0-------3---|
|------------------------3-------|------------------------3-------|

 |       |       |       |        |       |       |       |        
|--------------------------------|--------------------------------|
|--------------------------------|3-------3---0---3---0-------3---|
|----0-------3-------0-------0---|------------------------3-------|
|--------3---------------3-------|--------------------------------|

 |       |       |       |        |       |       |       |        
|--------------------------------|--------------------------------|
|----0-------3-------0-------0---|3-------3---0---3---0-------3---|
|--------3---------------3-------|------------------------3-------|
|--------------------------------|--------------------------------|

 |       |       |       |        |       |       |       |        
|--------------------------------|--------------------------------|
|----0-------3-------0-------0---|--------------------------------|
|--------3---------------3-------|3-------3---0---3---0-------3---|
|--------------------------------|------------------------3-------|

 |       |       |       |        |       |       |       |        
|--------------------------------|--------------------------------|
|--------------------------------|--------------------------------|
|----0-------3-------0-------0---|3-------3---0---3---0-------3---|
|--------3---------------3-------|------------------------3-------|

 |       |       |       |        |       |       |       |        
|--------------------------------|--------------------------------|
|--------------------------------|--------------------------------|
|----0-------3-------0-------0---|3-------3---0---3---0-------3---|
|--------3---------------3-------|------------------------3-------|

 |       |       |       |        |       |       |       |        
|--------------------------------|--------------------------------|
|--------------------------------|--------------------------------|
|----0-------3-------0-------0---|3-------3---0---3---0-------3---|
|--------3---------------3-------|------------------------3-------|

 |       |       |       |        |       |       |       |        
|--------------------------------|--------------------------------|
|--------------------------------|--------------------------------|
|----0-------3-------0-------0---|3-------3---0---3---0-------3---|
|--------3---------------3-------|------------------------3-------|

 |       |       |       |        |       |       |       |        
|--------------------------------|--------------------------------|
|--------------------------------|--------------------------------|
|----0-------3-------0-------0---|3-------3---0---3---0-------3---|
|--------3---------------3-------|------------------------3-------|

 |       |       |       |        |       |       |       |        
|--------------------------------|--------------------------------|
|--------------------------------|--------------------------------|
|----0-------3-------0-------0---|3-------3---0---3---0-------3---|
|----3---3---------------3-------|------------------------3-------|

 |       |       |       |        |       |       |       |        
|--------------------------------|--------------------------------|
|--------------------------------|--------------------------------|
|----0-------3-------0-------0---|3-------3---0---3---0-------3---|
|--------3---------------3-------|------------------------3-------|

 


Created with TablEdit http://www.tabledit.com/

............................................................
     
Добавлено: 22.09.2013
Другие материалы по этой песне:
  • Аккорды и текст

Страница создана 22.09.2013
http://primanota.ru/shadows/the-time-is-tight-chords.htm
Привет, Гость.
Предлагаем пройти революционный курс по гитаре.
Подарок от PrimaNota.Ru, забирай!