PrimaNota.ru - самый крупный в мире бесплатный архив песенных текстов, аккордов, табулатур и нот


Shadows - Perfidia - таба, видео

Регистрация Запомнить меня
Войти через:  Facebook Google Twitter Vk Yandex Mail.ru

Shadows - Perfidia - таба, видео

Печатать
Просмотров: 141
shadows_perfidia

Basstab by Jan Bjorklund, Finland  jani_bjorklund@yahoo.se>
You are welcome to request for basstabs!
Fingering and positions as suggested by TablEdit, please use common sense!

TablEdited by Jan Bjorklund
Tuning : E A D G 	Time Signature: 4/4

  |       |       |       |          |       |       |       |         
|----------------------------------|----------------------------------|
|----------------------------------|----------------------------------|
|-3--------------------------------|-5--------------------------------|
|-----------------5----------------|-------------3--------------------|

  |       |       |       |          |       |       |       |         
|----------------------------------|----------------------------------|
|----------------------------------|----------------------------------|
|-3--------------------------------|-5--------------------------------|
|-----------------5----------------|-------------3--------------------|

  |       |       |       |          |       |       |       |         
|----------------------------------|----------------------------------|
|----------------------------------|----------------------------------|
|-3-------3------------------------|-5-------5------------------------|
|-----------------5---5---5--------|-----------------3---3---3--------|

  |       |       |       |          |       |       |       |         
|----------------------------------|----------------------------------|
|----------------------------------|----------------------------------|
|-3-------3------------------------|-5-------5------------------------|
|-----------------5---5---5--------|-----------------3---3---3--------|

  |       |       |       |          |       |       |       |         
|----------------------------------|----------------------------------|
|----------------------------------|----------------------------------|
|-3-------3------------------------|----------------------------------|
|-----------------5---5---5--------|-1-------1-------1---1---1--------|

  |       |       |       |          |       |       |       |         
|----------------------------------|----------------------------------|
|----------------------------------|----------------------------------|
|----------------------------------|----------------------------------|
|-0-------0-------0-------0--------|-0--------------------------------|

  |       |       |       |          |       |       |       |         
|----------------------------------|----------------------------------|
|----------------------------------|----------------------------------|
|-3-------3------------------------|-5-------5------------------------|
|-----------------5---5---5--------|-----------------3---3---3--------|

  |       |       |       |          |       |       |       |         
|----------------------------------|----------------------------------|
|----------------------------------|----------------------------------|
|-3-------3------------------------|---------5------------------------|
|-----------------5---5---5--------|-1---------------3---3---3--------|

  |       |       |       |          |       |       |       |         
|----------------------------------|----------------------------------|
|----------------------------------|----------------------------------|
|-3-------3------------------------|-5-------5------------------------|
|-----------------5---5---5--------|-----------------3---3---3--------|

  |       |       |       |          |       |       |       |         
|----------------------------------|----------------------------------|
|----------------------------------|----------------------------------|
|-3-------3------------------------|-3--------------------------------|
|-----------------1---1---1--------|---------0-------5---3---0--------|

  |       |       |       |          |       |       |       |         
|----------------------------------|----------------------------------|
|----------------------------------|----------------------------------|
|-----------------3---3---3--------|-----------------3---3---3--------|
|-1-------1------------------------|-1-------1------------------------|

  |       |       |       |          |       |       |       |         
|----------------------------------|----------------------------------|
|----------------------------------|----------------------------------|
|----------------------------------|----------------------------------|
|-0--------------------------------|----------------------------------|

  |       |       |       |          |       |       |       |         
|----------------------------------|----------------------------------|
|----------------------------------|----------------------------------|
|-----------------3---3---3--------|-----------------3---3---3--------|
|-1-------1------------------------|-1-------1------------------------|

  |       |       |       |          |       |       |       |         
|----------------------------------|----------------------------------|
|----------------------------------|----------------------------------|
|----------------------------------|----------------------------------|
|-0--------------------------------|----------------------------------|

  |       |       |       |          |       |       |       |         
|----------------------------------|----------------------------------|
|----------------------------------|----------------------------------|
|-3-------3------------------------|-5-------5------------------------|
|-----------------5---5---5--------|-----------------3---3---3--------|

  |       |       |       |          |       |       |       |         
|----------------------------------|----------------------------------|
|----------------------------------|----------------------------------|
|-3-------3------------------------|-5-------5------------------------|
|-----------------5---5---5--------|-----------------3---3---3--------|

  |       |       |       |          |       |       |       |         
|----------------------------------|----------------------------------|
|----------------------------------|----------------------------------|
|-3-------3------------------------|----------------------------------|
|-----------------5---5---5--------|-1-------1-------1-------1--------|

  |       |       |       |          |       |       |       |         
|----------------------------------|----------------------------------|
|----------------------------------|----------------------------------|
|----------------------------------|----------------------------------|
|-0--------------------------------|----------------------------------|

  |       |       |       |          |       |       |       |         
|----------------------------------|----------------------------------|
|----------------------------------|----------------------------------|
|-3-------3------------------------|-5-------5------------------------|
|-----------------5---5---5--------|-----------------3---3---3--------|

  |       |       |       |          |       |       |       |         
|----------------------------------|----------------------------------|
|----------------------------------|----------------------------------|
|-3-------3------------------------|-5-------5------------------------|
|-----------------5---5---5--------|-----------------3---3---3--------|

  |       |       |       |          |       |       |       |         
|----------------------------------|----------------------------------|
|----------------------------------|----------------------------------|
|-3-------3------------------------|-5-------5------------------------|
|-----------------5---5---5--------|-----------------3---3---3--------|

  |       |       |       |          |       |       |       |         
|----------------------------------|----------------------------------|
|----------------------------------|----------------------------------|
|-3-------3------------------------|-3-------3------------------------|
|-----------------1-------1--------|-----------------0---3---5---3----|

  |       |       |       |          |       |       |       |         
|----------------------------------|----------------------------------|
|----------------------------------|----------------------------------|
|-----------------3---3---3--------|-----------------3---3---3--------|
|-1-------1------------------------|-1-------1------------------------|

  |       |       |       |          |       |       |       |         
|----------------------------------|----------------------------------|
|----------------------------------|----------------------------------|
|----------------------------------|----------------------------------|
|-0--------------------------------|----------------------------------|

  |       |       |       |          |       |       |       |         
|----------------------------------|----------------------------------|
|----------------------------------|----------------------------------|
|-----------------3---3---3--------|-----------------3---3---3--------|
|-1-------1------------------------|-1-------1------------------------|

  |       |       |       |          |       |       |       |         
|----------------------------------|----------------------------------|
|----------------------------------|----------------------------------|
|----------------------------------|----------------------------------|
|-0--------------------------------|----------------------------------|

  |       |       |       |          |       |       |       |         
|----------------------------------|----------------------------------|
|----------------------------------|----------------------------------|
|-3-------3------------------------|-5-------5------------------------|
|-----------------5---5---5--------|-----------------3---3---3--------|

  |       |       |       |          |       |       |       |         
|----------------------------------|----------------------------------|
|----------------------------------|----------------------------------|
|-3-------3------------------------|-5-------5------------------------|
|-----------------5---5---5--------|-----------------3---3---3--------|

  |       |       |       |          |       |       |       |         
|----------------------------------|----------------------------------|
|----------------------------------|----------------------------------|
|-3-------3------------------------|-5-------5------------------------|
|-----------------5---5---5--------|-----------------3---3---3--------|

  |       |       |       |          |       |       |       |         
|----------------------------------|----------------------------------|
|----------------------------------|----------------------------------|
|-3--------------------------------|----------------------------------|
|----------------------------------|----------------------------------|

  |       |       |       |          |       |       |       |         
|----------------------------------|----------------------------------|
|----------------------------------|----------------------------------|
|-3-------3------------------------|-5-------5------------------------|
|-----------------5---5---5--------|-------------3--------------------|

  |       |       |       |          |       |       |       |         
|----------------------------------|----------------------------------|
|----------------------------------|----------------------------------|
|-3-------3------------------------|-5-------5------------------------|
|-----------------5---5---5--------|-------------3--------------------|

  |       |       |       |          |       |       |       |         
|----------------------------------|----------------------------------|
|----------------------------------|----------------------------------|
|-3-------3------------------------|-5--------------------------------|
|-----------------5---5---5--------|-------------3-----------3--------|

  |       |       |       |          |       |       |       |         
|----------------------------------|----------------------------------|
|----------------------------------|----------------------------------|
|-3--------------------------------|---------3---3---3----------------|
|----------------------------------|----------------------------------|



Created with TablEdit http://www.tabledit.com/
     
Добавлено: 10.10.2013
Другие материалы по этой песне:

Страница создана 21.07.2012
http://primanota.ru/shadows/perfidia-chords.htm
Привет, Гость.
Предлагаем пройти революционный курс по гитаре.
Подарок от PrimaNota.Ru, забирай!