PrimaNota.ru - самый крупный в мире бесплатный архив песенных текстов, аккордов, табулатур и нот


Shadows - South Of The Border - бас-таба, видео

Регистрация Запомнить меня
Войти через:  Facebook Google Twitter Vk Yandex Mail.ru

Shadows - South Of The Border - бас-таба, видео

Печатать
Просмотров: 118
s/shadows/South_of_the_border.btab

Basstab by Jan Bjorklund, Finland  jani_bjorklund@yahoo.se>
You are welcome to request for basstabs!
Bienvenidos a pedirme transcripciones para el bajo!
Fingering and positions as suggested by TablEdit. 

TablEdited by Jan Bjorklund
Tuning : E A D G 	Time Signature: 4/4

 |       |       |       |        |       |       |       |        
|--------------------------------|--------------------------------|
|--------2---0---2---0-----------|------------2---0-----------2---|
|------------------------3-------|0-------------------------------|
|--------------------------------|--------------------------------|

 |       |       |       |        |       |       |       |        
|--------------------------------|--------------------------------|
|--------2---0---2---0-----------|------------2---0-----------2---|
|0-----------------------3-------|0-------------------------------|
|--------------------------------|--------------------------------|

 |       |       |       |        |       |       |       |        
|--------------------------------|--------------------------------|
|--------------------------------|----------------2---------------|
|0-------------------------------|0-------4---------------4-------|
|--------------------------------|--------------------------------|

 |       |       |       |        |       |       |       |        
|--------------------------------|--------------------------------|
|--------------------------------|----------------2---------------|
|----------------2-------4-------|0-------4---------------4-------|
|0-------4-----------------------|--------------------------------|

 |       |       |       |        |       |       |       |        
|--------------------------------|--------------------------------|
|----------------2---------------|----------------2---------------|
|0-------4---------------4-------|0-------4---------------4-------|
|--------------------------------|--------------------------------|

 |       |       |       |        |       |       |       |        
|--------------------------------|--------------------------------|
|----------------2---------------|--------------------------------|
|0-------4---------------0-------|----------------2-------4-------|
|--------------------------------|0-------4-----------------------|

 |       |       |       |        |       |       |       |        
|--------------------------------|--------------------------------|
|--------------------------------|----------------2---------------|
|----------------2-------4-------|0-------4---------------4-------|
|0-------4-----------------------|--------------------------------|

 |       |       |       |        |       |       |       |        
|--------------------------------|----------------2-------4-------|
|----------------2---------------|--------4-----------------------|
|0-------4---------------4-------|5-------------------------------|
|--------------------------------|--------------------------------|

 |       |       |       |        |       |       |       |        
|----------------2-------4-------|--------------------------------|
|--------4-----------------------|----------------2---------------|
|5-------------------------------|0-------4---------------4-------|
|--------------------------------|--------------------------------|

 |       |       |       |        |       |       |       |        
|--------------------------------|--------------------------------|
|--------------------------------|----------------0---------------|
|----------------2---------------|0-------------------------------|
|0-------4---------------4-------|--------------------------------|

 |       |       |       |        |       |       |       |        
|--------------------------------|--------------------------------|
|--------------------------------|----------------2---------------|
|0-------------------------------|0-------4---------------4-------|
|--------------------------------|--------------------------------|

 |       |       |       |        |       |       |       |        
|--------------------------------|--------------------------------|
|--------------------------------|----------------2---------------|
|----------------2-------4-------|0-------4---------------4-------|
|0-------4-----------------------|--------------------------------|

 |       |       |       |        |       |       |       |        
|--------------------------------|--------------------------------|
|----------------2---------------|----------------2---------------|
|0-------4---------------4-------|0-------4---------------4-------|
|--------------------------------|--------------------------------|

 |       |       |       |        |       |       |       |        
|--------------------------------|--------------------------------|
|----------------2---------------|--------------------------------|
|0-------4---------------0-------|----------------2-------4-------|
|--------------------------------|0-------4-----------------------|

 |       |       |       |        |       |       |       |        
|--------------------------------|--------------------------------|
|--------------------------------|----------------2---------------|
|----------------2-------4-------|0-------4---------------4-------|
|0-------4-----------------------|--------------------------------|

 |       |       |       |        |       |       |       |        
|--------------------------------|----------------2-------4-------|
|----------------2---------------|--------4-----------------------|
|0-------4---------------4-------|5-------------------------------|
|--------------------------------|--------------------------------|

 |       |       |       |        |       |       |       |        
|----------------2-------4-------|--------------------------------|
|--------4-----------------------|----------------2---------------|
|5-------------------------------|0-------4---------------4-------|
|--------------------------------|--------------------------------|

 |       |       |       |        |       |       |       |        
|--------------------------------|--------------------------------|
|--------------------------------|----------------0---------------|
|----------------2---------------|0-------------------------------|
|0-------4---------------4-------|--------------------------------|

 |       |       |       |        |       |       |       |        
|--------------------------------|--------------------------------|
|--------------------------------|2-------------------------------|
|0-------------------------------|--------4-------2-------4-------|
|--------------------------------|--------------------------------|

 |       |       |       |        |       |       |       |        
|--------------------------------|2-------0-----------------------|
|2-------------------------------|----------------4-------3-------|
|--------4-------2-------4-------|--------------------------------|
|--------------------------------|--------------------------------|

 |       |       |       |        |       |       |       |        
|2-------0-----------------------|--------------------------------|
|----------------4-------3-------|2-------0-----------------------|
|--------------------------------|----------------4-------2-------|
|--------------------------------|--------------------------------|

 |       |       |       |        |       |       |       |        
|--------------------------------|--------------------------------|
|2-------0-----------------------|----------------0---------------|
|----------------4-------2-------|0-------------------------------|
|--------------------------------|--------------------------------|

 |       |       |       |        |       |       |       |        
|--------------------------------|--------------------------------|
|--------------------------------|----------------2---------------|
|0-------------------------------|0-------4---------------4-------|
|--------------------------------|--------------------------------|

 |       |       |       |        |       |       |       |        
|--------------------------------|--------------------------------|
|--------------------------------|----------------2---------------|
|----------------2-------4-------|0-------4---------------4-------|
|0-------4-----------------------|--------------------------------|

 |       |       |       |        |       |       |       |        
|--------------------------------|--------------------------------|
|----------------2---------------|----------------2---------------|
|0-------4---------------4-------|0-------4---------------4-------|
|--------------------------------|--------------------------------|

 |       |       |       |        |       |       |       |        
|--------------------------------|--------------------------------|
|----------------2---------------|--------------------------------|
|0-------4---------------0-------|----------------2-------4-------|
|--------------------------------|0-------4-----------------------|

 |       |       |       |        |       |       |       |        
|--------------------------------|--------------------------------|
|--------------------------------|----------------2---------------|
|----------------2-------4-------|0-------4---------------4-------|
|0-------4-----------------------|--------------------------------|

 |       |       |       |        |       |       |       |        
|--------------------------------|----------------2-------4-------|
|----------------2---------------|--------4-----------------------|
|0-------4---------------4-------|5-------------------------------|
|--------------------------------|--------------------------------|

 |       |       |       |        |       |       |       |        
|----------------2-------4-------|--------------------------------|
|--------4-----------------------|----------------2---------------|
|5-------------------------------|0-------4---------------4-------|
|--------------------------------|--------------------------------|

 |       |       |       |        |       |       |       |        
|--------------------------------|--------------------------------|
|--------------------------------|----------------0---------------|
|----------------2---------------|0-------------------------------|
|0-------4---------------4-------|--------------------------------|

 |       |       |       |        |       |       |       |        
|--------------------------------|--------------------------------|
|--------2---0---2---0-----------|------------2---0-----------2---|
|0-----------------------3-------|0-------------------------------|
|--------------------------------|--------------------------------|

 |       |       |       |        |       |       |       |        
|--------------------------------|--------------------------------|
|--------2---0---2---0-----------|------------2---0-----------2---|
|0-----------------------3-------|0-------------------------------|
|--------------------------------|--------------------------------|

 |       |       |       |        |       |       |       |        
|--------------------------------|--------------------------------|
|--------------------------------|----------------2-------4-------|
|0-------------------------------|0-------4-----------------------|
|--------------------------------|--------------------------------|

 |       |       |       |        |       |       |       |        
|--------------------------------|--------------------------------|
|--------------------------------|----------------2-------4-------|
|--------4-------2-------4-------|0-------4-----------------------|
|0-------------------------------|--------------------------------|

 |       |       |       |        |       |       |       |        
|--------------------------------|--------------------------------|
|----------------2-------4-------|----------------2-------4-------|
|0-------4-----------------------|0-------4-----------------------|
|--------------------------------|--------------------------------|

 |       |       |       |        |       |       |       |        
|--------------------------------|--------------------------------|
|----------------2-------4-------|--------------------------------|
|0-------4-----------------------|--------4-------2-------4-------|
|--------------------------------|0-------------------------------|

 |       |       |       |        |       |       |       |        
|--------------------------------|--------------------------------|
|--------------------------------|----------------2-------4-------|
|--------4-------2-------4-------|0-------4-----------------------|
|0-------------------------------|--------------------------------|

 |       |       |       |        |       |       |       |        
|--------------------------------|----------------2-------4-------|
|----------------2-------4-------|--------4-----------------------|
|0-------4-----------------------|5-------------------------------|
|--------------------------------|--------------------------------|

 |       |       |       |        |       |       |       |        
|----------------2-------4-------|--------------------------------|
|--------4-----------------------|----------------2-------4-------|
|5-------------------------------|0-------4-----------------------|
|--------------------------------|--------------------------------|

 |       |       |       |        |       |       |       |        
|--------------------------------|--------------------------------|
|--------------------------------|----------------0---------------|
|--------4-------2-------4-------|0-------------------------------|
|0-------------------------------|--------------------------------|

 |       |       |       |        |       |       |       |        
|--------------------------------|--------------------------------|
|--------------------------------|2-------------------------------|
|0-------------------------------|--------4-------2-------4-------|
|--------------------------------|--------------------------------|

 |       |       |       |        |       |       |       |        
|--------------------------------|2-------0-----------------------|
|2-------------------------------|----------------4-------3-------|
|--------4-------2-------4-------|--------------------------------|
|--------------------------------|--------------------------------|

 |       |       |       |        |       |       |       |        
|2-------0-----------------------|--------------------------------|
|----------------4-------3-------|2-------0-----------------------|
|--------------------------------|----------------4-------2-------|
|--------------------------------|--------------------------------|

 |       |       |       |        |       |       |       |        
|--------------------------------|--------------------------------|
|2-------0-----------------------|----------------0---------------|
|----------------4-------2-------|0-------------------------------|
|--------------------------------|--------------------------------|

 |       |       |       |        |       |       |       |        
|--------------------------------|--------------------------------|
|--------------------------------|----------------2---------------|
|0-------------------------------|0-------4---------------4-------|
|--------------------------------|--------------------------------|

 |       |       |       |        |       |       |       |        
|--------------------------------|--------------------------------|
|--------------------------------|----------------2---------------|
|----------------2-------4-------|0-------4---------------4-------|
|0-------4-----------------------|--------------------------------|

 |       |       |       |        |       |       |       |        
|--------------------------------|--------------------------------|
|----------------2---------------|----------------2---------------|
|0-------4---------------4-------|0-------4---------------4-------|
|--------------------------------|--------------------------------|

 |       |       |       |        |       |       |       |        
|--------------------------------|--------------------------------|
|----------------2---------------|--------------------------------|
|0-------4---------------0-------|----------------2-------4-------|
|--------------------------------|0-------4-----------------------|

 |       |       |       |        |       |       |       |        
|--------------------------------|--------------------------------|
|--------------------------------|----------------2---------------|
|----------------2-------4-------|0-------4---------------4-------|
|0-------4-----------------------|--------------------------------|

 |       |       |       |        |       |       |       |        
|--------------------------------|----------------2-------4-------|
|----------------2---------------|--------4-----------------------|
|0-------4---------------4-------|5-------------------------------|
|--------------------------------|--------------------------------|

 |       |       |       |        |       |       |       |        
|----------------2-------4-------|--------------------------------|
|--------4-----------------------|----------------2---------------|
|5-------------------------------|0-------4---------------4-------|
|--------------------------------|--------------------------------|

 |       |       |       |        |       |       |       |        
|--------------------------------|--------------------------------|
|--------------------------------|----------------0---------------|
|----------------2---------------|0-------------------------------|
|0-------4---------------4-------|--------------------------------|

 |       |       |       |        |       |       |       |        
|--------------------------------|--------------------------------|
|--------2---0---2---0-----------|------------2---0-----------2---|
|0-----------------------3-------|0-------------------------------|
|--------------------------------|--------------------------------|

 |       |       |       |        |       |       |       |        
|--------------------------------|--------------------------------|
|--------2---0---2---0-----------|------------2---0-----------2---|
|0-----------------------3-------|0-------------------------------|
|--------------------------------|--------------------------------|

 |       |       |       |        |       |       |       |        
|--------------------------------|--------------------------------|
|--------2---0---2---0-----------|------------2---0-----------2---|
|0-----------------------3-------|0-------------------------------|
|--------------------------------|--------------------------------|

 |       |       |       |        |       |       |       |        
|--------------------------------|--------------------------------|
|--------2---0---2---0-----------|------------2---0-----------2---|
|0-----------------------3-------|0-------------------------------|
|--------------------------------|--------------------------------|

 |       |       |       |        |       |       |       |        
|--------------------------------|--------------------------------|
|--------2---0---2---0-----------|------------2---0-----------2---|
|0-----------------------3-------|0-------------------------------|
|--------------------------------|--------------------------------|



Created with TablEdit http://www.tabledit.com/

............................................................
     
Добавлено: 10.06.2013
Другие материалы по этой песне:

Страница создана 23.03.2012
http://primanota.ru/shadows/south-of-the-border-chords.htm
Привет, Гость.
Предлагаем пройти революционный курс по гитаре.
Подарок от PrimaNota.Ru, забирай!