PrimaNota.ru - самый крупный в мире бесплатный архив песенных текстов, аккордов, табулатур и нот


Shadows - The Girls - бас-таба, видео

Регистрация Запомнить меня
Войти через:  Facebook Google Twitter Vk Yandex Mail.ru

Shadows - The Girls - бас-таба, видео

Печатать
Просмотров: 77
s/shadows/The_girls.btab

Basstab by Jan Bjorklund, Finland  jani_bjorklund@yahoo.se>
You are welcome to request for basstabs!
Bienvenidos a pedirme transcripciones para el bajo!
Fingering and positions as suggested by TablEdit. 

TablEdited by Jan Bjorklund
Tuning : E A D G 	Time Signature: 4/4

 |       |       |       |        |       |       |       |        
|--------------------------------|1-----------1-------------------|
|4---------------1-----------1---|------------------------1---3---|
|--------------------------------|----------------4---4-----------|
|--------------------------------|--------------------------------|

 |       |       |       |        |       |       |       |        
|--------------------------------|1-----------1-------------------|
|4-----------4---1-----------1---|------------------------1---3---|
|--------------------------------|----------------4---4-----------|
|--------------------------------|--------------------------------|

 |       |       |       |        |       |       |       |        
|--------------------------------|1-----------1-------------------|
|4-------1-------1---------------|------------------------1---3---|
|--------------------------------|----------------4---4-----------|
|--------------------------------|--------------------------------|

 |       |       |       |        |       |       |       |        
|--------------------------------|1-----------1-------------------|
|4-------1-------1---------------|------------------------1---3---|
|--------------------------------|----------------4---4-----------|
|--------------------------------|--------------------------------|

 |       |       |       |        |       |       |       |        
|--------------------------------|1-----------1-------------------|
|4-----------4---1-----------1---|------------------------1---3---|
|--------------------------------|----------------4---4-----------|
|--------------------------------|--------------------------------|

 |       |       |       |        |       |       |       |        
|--------------------------------|1-----------1-------------------|
|4-----------4---1-----------1---|------------------------1---3---|
|--------------------------------|----------------4---4-----------|
|--------------------------------|--------------------------------|

 |       |       |       |        |       |       |       |        
|--------------------------------|1-----------1-------------------|
|4---------------1---------------|------------------------1---3---|
|--------------------------------|----------------4---4-----------|
|--------------------------------|--------------------------------|

 |       |       |       |        |       |       |       |        
|--------------------------------|1-------------------------------|
|4---------------1---------------|----------------4-----------4---|
|--------4-----------------------|--------4-----------------------|
|--------------------------------|--------------------------------|

 |       |       |       |        |       |       |       |        
|1-----------1---0-----------0---|--------------------------------|
|--------------------------------|4---------------4---------------|
|--------------------------------|------------4-----------4-------|
|--------------------------------|--------------------------------|

 |       |       |       |        |       |       |       |        
|1-----------1---0-----------0---|--------------------------------|
|--------------------------------|4---------------4---------------|
|--------------------------------|------------4-----------4-------|
|--------------------------------|--------------------------------|

 |       |       |       |        |       |       |       |        
|1-----------1---0-----------0---|--------------------------------|
|--------------------------------|4-----------4---1-----------1---|
|--------------------------------|--------------------------------|
|--------------------------------|--------------------------------|

 |       |       |       |        |       |       |       |        
|--------------------------------|----------------10--------------|
|--------------------------------|--------------------------------|
|--------------------------------|------------11----------11------|
|4---------------4---------------|9-------------------------------|

 |       |       |       |        |       |       |       |        
|----------------10--------------|--------------------------------|
|--------------------------------|4---------------1---------------|
|------------11----------11------|--------------------------------|
|9-------------------------------|--------------------------------|

 |       |       |       |        |       |       |       |        
|1-----------1-------------------|--------------------------------|
|------------------------1---3---|4---------------1---------------|
|----------------4---4-----------|--------------------------------|
|--------------------------------|--------------------------------|

 |       |       |       |        |       |       |       |        
|1-----------1-------------------|--------------------------------|
|------------------------1---3---|4-----------4---1-----------1---|
|----------------4---4-----------|--------------------------------|
|--------------------------------|--------------------------------|

 |       |       |       |        |       |       |       |        
|1-----------1-------------------|--------------------------------|
|------------------------1---3---|4-----------4---1-----------1---|
|----------------4---4-----------|--------------------------------|
|--------------------------------|--------------------------------|

 |       |       |       |        |       |       |       |        
|1-----------1-------------------|--------------------------------|
|------------------------1---3---|4-------1-------1---------------|
|----------------4---4-----------|--------------------------------|
|--------------------------------|--------------------------------|

 |       |       |       |        |       |       |       |        
|1-----------1-------------------|--------------------------------|
|------------------------1---3---|4---------------1---------------|
|----------------4---4-----------|--------------------------------|
|--------------------------------|--------------------------------|

 |       |       |       |        |       |       |       |        
|1-------------------------------|1-----------1---0-----------0---|
|----------------4-----------4---|--------------------------------|
|--------4-----------------------|--------------------------------|
|--------------------------------|--------------------------------|

 |       |       |       |        |       |       |       |        
|--------------------------------|1-----------1---0-----------0---|
|4---------------4---------------|--------------------------------|
|------------4-----------4-------|--------------------------------|
|--------------------------------|--------------------------------|

 |       |       |       |        |       |       |       |        
|--------------------------------|1-----------1---0-----------0---|
|4---------------4---------------|--------------------------------|
|------------4-----------4-------|--------------------------------|
|--------------------------------|--------------------------------|

 |       |       |       |        |       |       |       |        
|--------------------------------|--------------------------------|
|4-----------4---1-----------1---|--------------------------------|
|--------------------------------|--------------------------------|
|--------------------------------|4---------------4---------------|

 |       |       |       |        |       |       |       |        
|----------------10--------------|----------------11--------------|
|--------------------------------|--------------------------------|
|------------11----------11------|------------12----------12------|
|9-------------------------------|10------------------------------|

 |       |       |       |        |       |       |       |        
|0-------------------------------|2-----------2-------------------|
|----------------2---------------|----------------0---0---2---4---|
|--------------------------------|--------------------------------|
|--------------------------------|--------------------------------|

 |       |       |       |        |       |       |       |        
|0-----------0-------------------|2-----------2-------------------|
|----------------2-----------2---|----------------0---0---2---4---|
|--------------------------------|--------------------------------|
|--------------------------------|--------------------------------|

 |       |       |       |        |       |       |       |        
|0-----------0-------------------|2-----------2-------------------|
|----------------2-----------2---|----------------0---0---2---4---|
|--------------------------------|--------------------------------|
|--------------------------------|--------------------------------|

 |       |       |       |        |       |       |       |        
|0-------------------------------|2-----------2-------------------|
|----------------2---------------|----------------0---0---2---4---|
|--------------------------------|--------------------------------|
|--------------------------------|--------------------------------|

 |       |       |       |        |       |       |       |        
|0-----------0-------------------|2-----------2-------------------|
|----------------2-----------2---|----------------0---0---2---4---|
|--------------------------------|--------------------------------|
|--------------------------------|--------------------------------|

 |       |       |       |        |       |       |       |        
|0-----------0-------------------|2-----------2-------------------|
|----------------2-----------2---|----------------0---0---2---4---|
|--------------------------------|--------------------------------|
|--------------------------------|--------------------------------|

 |       |       |       |        |       |       |       |        
|0-------------------------------|2-----------2-------------------|
|----------------2---------------|----------------0---0---2---4---|
|--------------------------------|--------------------------------|
|--------------------------------|--------------------------------|

 |       |       |       |        |       |       |       |        
|0-----------0-------------------|2-----------2-------------------|
|----------------2-----------2---|----------------0-------0-------|
|--------------------------------|--------------------------------|
|--------------------------------|--------------------------------|

 |       |       |       |        |       |       |       |        
|0-----------0-------------------|2-----------2-------------------|
|----------------2-----------2---|----------------0---0---2---4---|
|--------------------------------|--------------------------------|
|--------------------------------|--------------------------------|

 |       |       |       |        |       |       |       |        
|0-----------0-------------------|2-----------2-------------------|
|----------------2-----------2---|----------------0-------0-------|
|--------------------------------|--------------------------------|
|--------------------------------|--------------------------------|

 |       |       |       |        |       |       |       |        
|0-------0-----------------------|--------------------------------|
|--------------------------------|--------------------------------|
|--------------------------------|--------------------------------|
|--------------------------------|--------------------------------|


Created with TablEdit http://www.tabledit.com/

............................................................
     
Добавлено: 09.06.2013
Другие материалы по этой песне:

Страница создана 29.06.2012
http://primanota.ru/shadows/the-girls-chords.htm
Привет, Гость.
Предлагаем пройти революционный курс по гитаре.
Подарок от PrimaNota.Ru, забирай!