PrimaNota.ru - самый крупный в мире бесплатный архив песенных текстов, аккордов, табулатур и нот


Shadows - Tales Of A Raggy Tramline - таба, бас-таба, видео

Регистрация Запомнить меня
Войти через:  Facebook Google Twitter Vk Yandex Mail.ru

Shadows - Tales Of A Raggy Tramline - таба, бас-таба, видео

Печатать
Просмотров: 107
TALES OF A RAGGY TRAMLINE

As recorded by The Shadows
(From the 1962 Album OUT OF THE SHADOWS)

Music by Brian Bennet & Jet Harris

Transcribed by Slowhand


Gtr I (E A D G B E) - 'Hank Marvin - Electric Guitar'
Gtr II (E A D G B E) - 'Bruce Welch - Electric Guitar'
Gtr III (E A D G B E) - 'Hank Marvin - Electric Guitar'


  Q=156
 4/4
  Gtr I
  W          W          W          W
|----------|----------|----------|------|
|----------|----------|----------|------|
|----------|----------|----------|------|
|----------|----------|----------|------|
|----------|----------|----------|------|
|----------|----------|----------|------|


  W          W          E E +H.        E E +H.
|----------|----------|--------------|------------|
|----------|----------|-4s5-(5)------|-4s5-(5)----|
|----------|----------|-4s5-(5)------|-4s5-(5)----|
|----------|----------|-4s5-(5)------|-4s5-(5)----|
|----------|----------|--------------|------------|
|----------|----------|--------------|------------|


  E E +H.        E E +H.        W
|--------------|--------------|------|
|-4s5-(5)------|-4s5-(5)------|------|
|-4s5-(5)------|-4s5-(5)------|------|
|-4s5-(5)------|-4s5-(5)------|------|
|--------------|--------------|------|
|--------------|--------------|------|


  W          W          W
|----------|----------|------||
|----------|----------|------||
|----------|----------|------||
|----------|----------|------||
|----------|----------|------||
|----------|----------|------||


  C         Am        Dm         G7
  Gtr I
  H         Q   Q     H.             Q
|-------------------|--------------------|
|-------------------|--------------------|
|-------------------|--------------------|
|-5-----------------|----------------7---|
|-----------7---8---|-5------------------|
|-------------------|--------------------|
|
| Gtr II
| E S S E E E E E E   E  S S E E E E E E
|-3-3-3-3-3-5-5-5-5-|-5--5-5-5-5-3-3-3-3-|
|-5-5-5-5-5-5-5-5-5-|-6--6-6-6-6-3-3-3-3-|
|-5-5-5-5-5-5-5-5-5-|-7--7-7-7-7-4-4-4-4-|
|-5-5-5-5-5-7-7-7-7-|-7--7-7-7-7-3-3-3-3-|
|-3-3-3-3-3-7-7-7-7-|-5--5-5-5-5-5-5-5-5-|
|-----------5-5-5-5-|------------3-3-3-3-|


  C         Am        Dm         G7
  H         Q   Q     H.             Q
|-------------------|--------------------|
|-------------------|--------------------|
|-------------------|--------------------|
|-5-----------------|--------------------|
|-----------7---8---|-5--------------6---|
|-------------------|--------------------|
|
| E S S E E E E E E   E  S S E E E E E E
|-3-3-3-3-3-5-5-5-5-|-5--5-5-5-5-3-3-3-3-|
|-5-5-5-5-5-5-5-5-5-|-6--6-6-6-6-3-3-3-3-|
|-5-5-5-5-5-5-5-5-5-|-7--7-7-7-7-4-4-4-4-|
|-5-5-5-5-5-7-7-7-7-|-7--7-7-7-7-3-3-3-3-|
|-3-3-3-3-3-7-7-7-7-|-5--5-5-5-5-5-5-5-5-|
|-----------5-5-5-5-|------------3-3-3-3-|


  Em                  F         Em
                                |---3---|
  H         Q   Q     H         Q   Q   Q
|-------------------|-----------------------|
|-------------------|-----------------------|
|-------------------|-----------------------|
|-------------------|-----------------------|
|-7-----------------|-----------7-----------|
|-----------7---8---|-5-------------7---8---|
|
| E S S E E E E E E   E S S E E E E   E   E
|-0-0-0-0-0-0-0-0-0-|-1-1-1-1-1-0-0---0---0-|
|-0-0-0-0-0-0-0-0-0-|-1-1-1-1-1-0-0---0---0-|
|-0-0-0-0-0-0-0-0-0-|-2-2-2-2-2-0-0---0---0-|
|-2-2-2-2-2-2-2-2-2-|-3-3-3-3-3-2-2---2---2-|
|-2-2-2-2-2-2-2-2-2-|-3-3-3-3-3-2-2---2---2-|
|-0-0-0-0-0-0-0-0-0-|-1-1-1-1-1-0-0---0---0-|


  F                   G7
  W                   +Q      Q   H
|-------------------|---------------------||
|-------------------|---------------------||
|-------------------|---------------------||
|-------------------|---------------------||
|-------------------|---------------------||
|-5-----------------|-(5)-----------------||
|
| E S S E E E E E E    E  S S E E E E E E
|-1-1-1-1-1-1-1-1-1-|--3--3-3-3-3-3-3-3-3-||
|-1-1-1-1-1-1-1-1-1-|--3--3-3-3-3-3-3-3-3-||
|-2-2-2-2-2-2-2-2-2-|--4--4-4-4-4-4-4-4-4-||
|-3-3-3-3-3-3-3-3-3-|--3--3-3-3-3-3-3-3-3-||
|-3-3-3-3-3-3-3-3-3-|--5--5-5-5-5-5-5-5-5-||
|-1-1-1-1-1-1-1-1-1-|--3--3-3-3-3-3-3-3-3-||


  C         Am        Dm         G7
  H         Q   Q     H.             Q
|-------------------|--------------------|
|-------------------|--------------------|
|-------------------|--------------------|
|-5-----------------|----------------7---|
|-----------7---8---|-5------------------|
|-------------------|--------------------|
|
| E S S E E E E E E   E  S S E E E E E E
|-3-3-3-3-3-5-5-5-5-|-5--5-5-5-5-3-3-3-3-|
|-5-5-5-5-5-5-5-5-5-|-6--6-6-6-6-3-3-3-3-|
|-5-5-5-5-5-5-5-5-5-|-7--7-7-7-7-4-4-4-4-|
|-5-5-5-5-5-7-7-7-7-|-7--7-7-7-7-3-3-3-3-|
|-3-3-3-3-3-7-7-7-7-|-5--5-5-5-5-5-5-5-5-|
|-----------5-5-5-5-|------------3-3-3-3-|


  C         Am        Dm         G7
  H         Q   Q     H.             Q
|-------------------|--------------------|
|-------------------|--------------------|
|-------------------|--------------------|
|-5-----------------|--------------------|
|-----------7---8---|-5--------------6---|
|-------------------|--------------------|
|
| E S S E E E E E E   E  S S E E E E E E
|-3-3-3-3-3-5-5-5-5-|-5--5-5-5-5-3-3-3-3-|
|-5-5-5-5-5-5-5-5-5-|-6--6-6-6-6-3-3-3-3-|
|-5-5-5-5-5-5-5-5-5-|-7--7-7-7-7-4-4-4-4-|
|-5-5-5-5-5-7-7-7-7-|-7--7-7-7-7-3-3-3-3-|
|-3-3-3-3-3-7-7-7-7-|-5--5-5-5-5-5-5-5-5-|
|-----------5-5-5-5-|------------3-3-3-3-|


  Em                  F         G7
                                |---3---|
  H         Q   Q     H         Q   Q   Q
|-------------------|-----------------------|
|-------------------|-----------------------|
|-------------------|-----------------------|
|-------------------|-----------------------|
|-7-----------------|---------------5-------|
|-----------7---8---|-5---------7-------8---|
|
| E S S E E E E E E   E S S E E E E   E   E
|-0-0-0-0-0-0-0-0-0-|-1-1-1-1-1-3-3---3---3-|
|-0-0-0-0-0-0-0-0-0-|-1-1-1-1-1-3-3---3---3-|
|-0-0-0-0-0-0-0-0-0-|-2-2-2-2-2-4-4---4---4-|
|-2-2-2-2-2-2-2-2-2-|-3-3-3-3-3-3-3---3---3-|
|-2-2-2-2-2-2-2-2-2-|-3-3-3-3-3-5-5---5---5-|
|-0-0-0-0-0-0-0-0-0-|-1-1-1-1-1-3-3---3---3-|


  C
  +W                    +Q      Q   Q   E E
|---------------------|---------------------||
|---------------------|---------------------||
|---------------------|-----------------4-5-||
|---------------------|---------------------||
|---------------------|---------------------||
|-(8)-----------------|-(8)-----------------||
|
|  E  S S E E E E E E    E  S S E E E E E E
|--0--0-0-0-0-0-0-0-0-|--0--0-0-0-0-0-0-0-0-||
|--1--1-1-1-1-1-1-1-1-|--1--1-1-1-1-1-1-1-1-||
|--0--0-0-0-0-0-0-0-0-|--0--0-0-0-0-0-0-0-0-||
|--2--2-2-2-2-2-2-2-2-|--2--2-2-2-2-2-2-2-2-||
|--3--3-3-3-3-3-3-3-3-|--3--3-3-3-3-3-3-3-3-||
|---------------------|---------------------||


  Dm7    G7       Dm7   G7        C
                                                        |---3---|
  Q  E E H        H     Q   E E   Q  E E H        H     Q   Q   Q
|---------------|---------------|---------------|------------------|
|---------------|---------------|-5-------------|---------------5--|
|-7-------------|-----------5-7-|---------------|-----------7------|
|----5-5-5------|---------------|----5-5-5------|------------------|
|---------------|---------------|---------------|------------------|
|---------------|---------------|---------------|------------------|
|
| Q  Q   E E Q    Q  Q  E E Q     Q  Q   E E Q    Q  Q  E E   Q
|-5--5---3-3-3--|-5--5--3-3-3---|-0--0---0-0-0--|-0--0--0-0---0----|
|-6--6---3-3-3--|-6--6--3-3-3---|-1--1---1-1-1--|-1--1--1-1---1----|
|-5--5---4-4-4--|-5--5--4-4-4---|-0--0---0-0-0--|-0--0--0-0---0----|
|-7--7---3-3-3--|-7--7--3-3-3---|-2--2---2-2-2--|-2--2--2-2---2----|
|-5--5---5-5-5--|-5--5--5-5-5---|-3--3---3-3-3--|-3--3--3-3---3----|
|--------3-3-3--|-------3-3-3---|---------------|------------------|


  F
  H.         Q    H.         Q    Q  E E E Q.      E E Q  H
|---------------|---------------|----------------|-------------||
|-6----------5--|---------------|----------------|-------------||
|---------------|-7----------5--|-7--------4-----|-4-----------||
|---------------|---------------|----5-5-5-5-----|-5-----------||
|---------------|---------------|----------------|-------------||
|---------------|---------------|----------------|-------------||
|
| Q   Q  E E Q    Q   Q  E E Q    Q  Q   E E  Q    E E Q  H
|-1---1--1-1-1--|-1---1--1-1-1--|-3--3---3-3--3--|-3-----------||
|-1---1--1-1-1--|-1---1--1-1-1--|-3--3---3-3--3--|-3-----------||
|-2---2--2-2-2--|-2---2--2-2-2--|-4--4---4-4--4--|-4-----------||
|-3---3--3-3-3--|-3---3--3-3-3--|-3--3---3-3--3--|-3-----------||
|-3---3--3-3-3--|-3---3--3-3-3--|-5--5---5-5--5--|-5-----------||
|-1---1--1-1-1--|-1---1--1-1-1--|-3--3---3-3--3--|-3-----------||


  $
  C         Am        Dm         G7
  H         Q   Q     H.             Q
|-------------------|--------------------|
|-------------------|--------------------|
|-------------------|--------------------|
|-5-----------------|----------------7---|
|-----------7---8---|-5------------------|
|-------------------|--------------------|
|
| E S S E E E E E E   E  S S E E E E E E
|-3-3-3-3-3-5-5-5-5-|-5--5-5-5-5-3-3-3-3-|
|-5-5-5-5-5-5-5-5-5-|-6--6-6-6-6-3-3-3-3-|
|-5-5-5-5-5-5-5-5-5-|-7--7-7-7-7-4-4-4-4-|
|-5-5-5-5-5-7-7-7-7-|-7--7-7-7-7-3-3-3-3-|
|-3-3-3-3-3-7-7-7-7-|-5--5-5-5-5-5-5-5-5-|
|-----------5-5-5-5-|------------3-3-3-3-|


  C         Am        Dm         G7
  H         Q   Q     H.             Q
|-------------------|--------------------|
|-------------------|--------------------|
|-------------------|--------------------|
|-5-----------------|--------------------|
|-----------7---8---|-5--------------6---|
|-------------------|--------------------|
|
| E S S E E E E E E   E  S S E E E E E E
|-3-3-3-3-3-5-5-5-5-|-5--5-5-5-5-3-3-3-3-|
|-5-5-5-5-5-5-5-5-5-|-6--6-6-6-6-3-3-3-3-|
|-5-5-5-5-5-5-5-5-5-|-7--7-7-7-7-4-4-4-4-|
|-5-5-5-5-5-7-7-7-7-|-7--7-7-7-7-3-3-3-3-|
|-3-3-3-3-3-7-7-7-7-|-5--5-5-5-5-5-5-5-5-|
|-----------5-5-5-5-|------------3-3-3-3-|


  Em                  F         Em
                                |---3---|
  H         Q   Q     H         Q   Q   Q
|-------------------|-----------------------|
|-------------------|-----------------------|
|-------------------|-----------------------|
|-------------------|-----------------------|
|-7-----------------|-----------7-----------|
|-----------7---8---|-5-------------7---8---|
|
| E S S E E E E E E   E S S E E E E   E   E
|-0-0-0-0-0-0-0-0-0-|-1-1-1-1-1-0-0---0---0-|
|-0-0-0-0-0-0-0-0-0-|-1-1-1-1-1-0-0---0---0-|
|-0-0-0-0-0-0-0-0-0-|-2-2-2-2-2-0-0---0---0-|
|-2-2-2-2-2-2-2-2-2-|-3-3-3-3-3-2-2---2---2-|
|-2-2-2-2-2-2-2-2-2-|-3-3-3-3-3-2-2---2---2-|
|-0-0-0-0-0-0-0-0-0-|-1-1-1-1-1-0-0---0---0-|


  F
  W                   +H          Q   E E
|-------------------|---------------------||
|-------------------|---------------------||
|-------------------|---------------------||
|-------------------|---------------------||
|-------------------|---------------------||
|-5-----------------|-(5)---------------5-||
|
| E S S E E E E E E    E  S S E E E E E E
|-1-1-1-1-1-1-1-1-1-|--1--1-1-1-1-1-1-1-1-||
|-1-1-1-1-1-1-1-1-1-|--1--1-1-1-1-1-1-1-1-||
|-2-2-2-2-2-2-2-2-2-|--2--2-2-2-2-2-2-2-2-||
|-3-3-3-3-3-3-3-3-3-|--3--3-3-3-3-3-3-3-3-||
|-3-3-3-3-3-3-3-3-3-|--3--3-3-3-3-3-3-3-3-||
|-1-1-1-1-1-1-1-1-1-|--1--1-1-1-1-1-1-1-1-||


  G7
  H         H         +Q.       E Q   Q
|-------------------|---------------------|
|-------------------|---------------------|
|-------------------|---------------------|
|-----------7-------|-(7)-------5-4---5---|
|-------------------|---------------------|
|-7-----------------|---------------------|
|
| E S S E E E E E E    E  S S E E E E E E
|-3-3-3-3-3-3-3-3-3-|--3--3-3-3-3-3-3-3-3-|
|-3-3-3-3-3-3-3-3-3-|--3--3-3-3-3-3-3-3-3-|
|-4-4-4-4-4-4-4-4-4-|--4--4-4-4-4-4-4-4-4-|
|-3-3-3-3-3-3-3-3-3-|--3--3-3-3-3-3-3-3-3-|
|-5-5-5-5-5-5-5-5-5-|--5--5-5-5-5-5-5-5-5-|
|-3-3-3-3-3-3-3-3-3-|--3--3-3-3-3-3-3-3-3-|


  C         Dm
  H         H         +H          Q   Q
|-------------------|---------------------|
|-------------------|---------------------|
|-5---------7-------|-(7)---------5---7---|
|-------------------|---------------------|
|-------------------|---------------------|
|-------------------|---------------------|
|
| E S S E E E E E E    E  S S E E E E E E
|-0-0-0-0-0-1-1-1-1-|--1--1-1-1-1-1-1-1-1-|
|-1-1-1-1-1-3-3-3-3-|--3--3-3-3-3-3-3-3-3-|
|-0-0-0-0-0-2-2-2-2-|--2--2-2-2-2-2-2-2-2-|
|-2-2-2-2-2-0-0-0-0-|--0--0-0-0-0-0-0-0-0-|
|-3-3-3-3-3---------|---------------------|
|-------------------|---------------------|


                                       To Coda
  C             Am        F           G7
  |----3----|
  Q   Q     Q   H         +Q      H       Q
|-----------------------|----------------------|
|-5---------------------|---------5-------5----|
|-----5-----------------|----------------------|
|-----------7---5-------|-(5)------------------|
|-----------------------|----------------------|
|-----------------------|----------------------|
|
| E S   S E   E E E E E    E  S S E E E E E E
|-0-0---0-0---0-0-0-0-0-|--1--1-1-1-1-3-3-3-3--|
|-1-1---1-1---1-1-1-1-1-|--1--1-1-1-1-3-3-3-3--|
|-0-0---0-0---0-2-2-2-2-|--2--2-2-2-2-4-4-4-4--|
|-2-2---2-2---2-2-2-2-2-|--3--3-3-3-3-3-3-3-3--|
|-3-3---3-3---3-0-0-0-0-|--3--3-3-3-3-5-5-5-5--|
|-----------------------|--1--1-1-1-1-3-3-3-3--|


  C                   G7
  W                   W
|-------------------|---------------------||
|-------------------|---------------------||
|-5-----------------|---------------------||
|-------------------|---------------------||
|-------------------|---------------------||
|-------------------|---------------------||
|
| E S S E E E E E E   E S S E E E E E E
|-0-0-0-0-0-0-0-0-0-|-3-3-3-3-3-3-3-3-3---||
|-1-1-1-1-1-1-1-1-1-|-3-3-3-3-3-3-3-3-3---||
|-0-0-0-0-0-0-0-0-0-|-4-4-4-4-4-4-4-4-4---||
|-2-2-2-2-2-2-2-2-2-|-3-3-3-3-3-3-3-3-3---||
|-3-3-3-3-3-3-3-3-3-|-5-5-5-5-5-5-5-5-5---||
|-------------------|-3-3-3-3-3-3-3-3-3---||


  C
                                      Gtr III
                                             PM--|
  W             W          W          H    E E E E
|-------------|----------|----------|--------------|
|-------------|----------|----------|--------------|
|-------------|----------|----------|--------------|
|-------------|----------|----------|--------------|
|-------------|----------|----------|--------------|
|-------------|----------|----------|--------3-5-3-|
|
| E E Q  H      W          W          W
|-0-----------|----------|----------|--------------|
|-1-----------|----------|----------|--------------|
|-0-----------|----------|----------|--------------|
|-2-----------|----------|----------|--------------|
|-3-----------|----------|----------|--------------|
|-------------|----------|----------|--------------|


  PM--------------------------------------------------------------------|
  Q  Q  Q  E E   +E  E E E +E  E E E   Q  Q  Q  E E   +E  E E E +E  E E E
|--------------|---------------------|--------------|---------------------|
|--------------|---------------------|--------------|---------------------|
|--------------|---------------------|--------------|---------------------|
|--------------|---------------------|--------------|---------------------|
|-3-----3----3-|-(3)-3---3-(3)-------|-3-----3----3-|-(3)-3---3-(3)-------|
|----3-----3---|-------3-------3-5-3-|----3-----3---|-------3-------3-5-3-|


                            D.S. al Coda
  PM
  E E Q  H      W          W          W
|-------------|----------|----------|-------||
|-------------|----------|----------|-------||
|-------------|----------|----------|-------||
|-------------|----------|----------|-------||
|-3-----------|----------|----------|-------||
|-------------|----------|----------|-------||


  &
  C                             C             Am        F           G7
  Gtr I
                       |-3-|    |----3----|
  W             +H     Q Q Q    Q   Q     Q   H         +Q      H       Q
|-------------|---------------|-----------------------|---------------------|
|-------------|------------3--|-5---------------------|---------5-------5---|
|-5-----------|-(5)------5----|-----5-----------------|---------------------|
|-------------|---------------|-----------7---5-------|-(5)-----------------|
|-------------|---------------|-----------------------|---------------------|
|-------------|---------------|-----------------------|---------------------|
|
| Gtr II
| E E Q  H       W              E S   S E   E E E E E    E  S S E E E E E E
|-0-----------|---------------|-0-0---0-0---0-0-0-0-0-|--1--1-1-1-1-3-3-3-3-|
|-1-----------|---------------|-1-1---1-1---1-1-1-1-1-|--1--1-1-1-1-3-3-3-3-|
|-0-----------|---------------|-0-0---0-0---0-2-2-2-2-|--2--2-2-2-2-4-4-4-4-|
|-2-----------|---------------|-2-2---2-2---2-2-2-2-2-|--3--3-3-3-3-3-3-3-3-|
|-3-----------|---------------|-3-3---3-3---3-0-0-0-0-|--3--3-3-3-3-5-5-5-5-|
|-------------|---------------|-----------------------|--1--1-1-1-1-3-3-3-3-|


  C
                     |--3---|
  E E Q  H      H    Q   Q  Q
|-------------|------------10--|
|-------------|--------/13-----|
|-5-----------|----------------|
|-------------|----------------|
|-------------|----------------|
|-------------|----------------|
|
| E E Q  H      W
|-0-----------|----------------|
|-1-----------|----------------|
|-0-----------|----------------|
|-2-----------|----------------|
|-3-----------|----------------|
|-------------|----------------|


  C                Am         F                G7
   |-----3-----|
   Q    Q      Q    H          +E   E    +Q    E  Q    E
|-12------------------------|------12---(12)-----12------|
|------13----------13-------|-(13)--------------------13-|
|-------------14------------|----------------------------|
|---------------------------|----------------------------|
|---------------------------|----------------------------|
|---------------------------|----------------------------|
|
|  E S    S E    E  E E E E     E   S S   E  E E  E E  E
|--3-3----3-3----3--5-5-5-5-|---1---1-1---1--1-3--3-3--3-|
|--5-5----5-5----5--5-5-5-5-|---1---1-1---1--1-3--3-3--3-|
|--5-5----5-5----5--5-5-5-5-|---2---2-2---2--2-4--4-4--4-|
|--5-5----5-5----5--7-7-7-7-|---3---3-3---3--3-3--3-3--3-|
|--3-3----3-3----3--7-7-7-7-|---3---3-3---3--3-5--5-5--5-|
|-------------------5-5-5-5-|---1---1-1---1--1-3--3-3--3-|


  C           F              C    B  C
   Q      Q    E  E  +Q      E  E  E  E  +H        +H.      Q
|--------------------------|--------------------|---------------*|
|-13-----13---15-15-(15)---|---17s16s17-(17)----|-(17)----------*|
|--------------------------|---17s16s17-(17)----|-(17)----------*|
|--------------------------|--------------------|---------------*|
|--------------------------|--------------------|---------------*|
|--------------------------|--------------------|---------------*|
|
|  E S S  E E  E  E   E  E   E  E  E  E  +H        +H.      Q
|--3-3-3--3-3--1--1---1--1-|-3--3--2--3--(3)----|--(3)----------*|
|--5-5-5--5-5--1--1---1--1-|-5--5--4--5--(5)----|--(5)----------*|
|--5-5-5--5-5--2--2---2--2-|-5--5--4--5--(5)----|--(5)----------*|
|--5-5-5--5-5--3--3---3--3-|-5--5--4--5--(5)----|--(5)----------*|
|--3-3-3--3-3--3--3---3--3-|-3--3--2--3--(3)----|--(3)----------*|
|--------------1--1---1--1-|--------------------|---------------*|


Duration Legend
---------------
W - whole; H - half; Q - quarter; E - 8th; S - 16th; T - 32nd; X - 64th; a - acciaccatura
+ - note tied to previous; . - note dotted; .. - note double dotted
Uncapitalized letters represent notes that are staccato (1/2 duration)
Irregular groupings are notated above the duration line
Duration letters will always appear directly above the note/fret number it represents the
duration for.  Duration letters with no fret number below them represent rests.  Multi-
bar rests are notated in the form Wxn, where n is the number of bars to rest for.  Low
melody durations appear below the staff

Tablature Legend
----------------
 h   - hammer-on
 p   - pull-off
 b   - bend
 pb  - pre-bend
 r   - bend release (if no number after the r, then release immediately)
 /\  - slide into or out of (from/to "nowhere")
 s   - legato slide
 S   - shift slide
  - natural harmonic
[n]  - artificial harmonic
n(n) - tapped harmonic
 ~   - vibrato
 tr  - trill
 T   - tap
 TP  - trem. picking
 PM  - palm muting
\n/  - tremolo bar dip; n = amount to dip
 \n  - tremolo bar down
 n/  - tremolo bar up
/n\  - tremolo bar inverted dip
 =   - hold bend; also acts as connecting device for hammers/pulls
 <>  - volume swell (louder/softer)
 x   - on rhythm slash represents muted slash
 o   - on rhythm slash represents single note slash

Misc Legend
-----------
 |  - bar
||  - double bar
||o - repeat start
o|| - repeat end
*|  - double bar (ending)
 :  - bar (freetime)
 $  - Segno
 &  - Coda
Tempo markers -  = BPM(8/16=s8/s16), where s8 = swing 8ths, s16 = swing 16ths
Добавлено: 07.06.2015
Другие материалы по этой песне:

Страница создана 07.07.2012
http://primanota.ru/shadows/tales-of-a-raggy-tramline-chords.htm
Привет, Гость.
Предлагаем пройти революционный курс по гитаре.
Подарок от PrimaNota.Ru, забирай!