PrimaNota.ru - самый крупный в мире бесплатный архив песенных текстов, аккордов, табулатур и нот


Shadows - See Me Feel Me - бас-таба, видео

Регистрация Запомнить меня
Войти через:  Facebook Google Twitter Vk Yandex Mail.ru

Shadows - See Me Feel Me - бас-таба, видео

Печатать
Просмотров: 74
Уроки эстрадного вокала в Санкт-Петербурге
s/shadows/See_me_feel_me(Pinnball_wizard).btab

Basstab by Jan Bjorklund, Finland  jani_bjorklund@yahoo.se>
You are welcome to request for basstabs!
Bienvenidos a pedirme transcripciones para el bajo!
Fingering and positions as suggested by TablEdit. 

TablEdited by Jan Bjorklund
Tuning : E A D G 	Time Signature: 4/4

 |       |       |       |        |       |       |       |        
|--------------------------------|--------------------------------|
|--------------------------------|--------------------------------|
|2-------------------------------|--------------------------------|
|--------------------------------|--------------------------------|

 |       |       |       |        |       |       |       |        
|--------------------------------|--------------------------------|
|--------------------------------|--------------------------------|
|2-------------------------------|--------------------------------|
|--------------------------------|--------------------------------|

 |       |       |       |        |       |       |       |        
|--------------------------------|--------------------------------|
|--------------------------------|--------------------------------|
|2---2-------2---------------2---|2---2-------2---------------2---|
|----------------2---2-----------|----------------2---2-----------|

 |       |       |       |        |       |       |       |        
|--------------------------------|--------------------------------|
|--------------------------------|--------------------------------|
|0---0-------0---------------0---|0---0-------0---------------0---|
|----------------0---0-----------|----------------0---0-----------|

 |       |       |       |        |       |       |       |        
|--------------------------------|--------------------------------|
|----------------0---0-----------|----------------0---0-----------|
|--------------------------------|--------------------------------|
|3---3-------3---------------3---|3---3-------3---------------3---|

 |       |       |       |        |       |       |       |        
|--------------------------------|--------------------------------|
|--------------------------------|--------------------------------|
|----------------4---4-----------|--------------------------------|
|2---2-------2---------------2---|2-------------------------------|

 |       |       |       |        |       |       |       |        
|--------------------------------|--------------------------------|
|--------------------0-------2---|--------------------------------|
|2---2-------0-------------------|--------------------------------|
|--------------------------------|--------------------------------|

 |       |       |       |        |       |       |       |        
|--------------------------------|--------------------------------|
|--------------------0-------2---|--------------------------------|
|2---2-------0-------------------|--------------------------------|
|--------------------------------|--------------------------------|

 |       |       |       |        |       |       |       |        
|--------------------------------|--------------------------------|
|--------------------------------|--------------------------------|
|2---2-------2---------------2---|2---2-------2---------------2---|
|----------------2---2-----------|----------------2---2-----------|

 |       |       |       |        |       |       |       |        
|--------------------------------|--------------------------------|
|--------------------------------|--------------------------------|
|0---0-------0---------------0---|0---0-------0---------------0---|
|----------------0---0-----------|----------------0---0-----------|

 |       |       |       |        |       |       |       |        
|--------------------------------|--------------------------------|
|----------------0---0-----------|----------------0---0-----------|
|--------------------------------|--------------------------------|
|3---3-------3---------------3---|3---3-------3---------------3---|

 |       |       |       |        |       |       |       |        
|--------------------------------|--------------------------------|
|--------------------------------|--------------------------------|
|----------------4---4-----------|--------------------------------|
|2---2-------2---------------2---|2-------------------------------|

 |       |       |       |        |       |       |       |        
|--------------------------------|--------------------------------|
|--------------------0-------2---|--------------------------------|
|2---2-------0-------------------|--------------------------------|
|--------------------------------|--------------------------------|

 |       |       |       |        |       |       |       |        
|--------------------------------|--------------------------------|
|--------------------0-------2---|--------------------------------|
|2---2-------0-------------------|--------------------------------|
|--------------------------------|--------------------------------|

 |       |       |       |        |       |       |       |        
|--------------------------------|--------------------------------|
|2-------2---------------1-------|------------------------1-------|
|----------------2---------------|------------2---2---2-----------|
|----------------------------2---|0---0---4-------------------2---|

 |       |       |       |        |       |       |       |        
|--------------------------------|--------------------------------|
|------------------------1-------|------------------------0---2---|
|------------2---2---2-----------|----------------2---2-----------|
|0---0---4-------------------2---|3-------3---3-------------------|

 |       |       |       |        |       |       |       |        
|--------------------------------|--------------------------------|
|0-------0---0-------0-----------|0---0---2---0-------0---0---0---|
|------------------------3---0---|--------------------------------|
|--------------------------------|--------------------------------|

 |       |       |       |        |       |       |       |        
|--------------------------------|--------------------------------|
|0-----------------------0---0---|----0---------------------------|
|----3---0-----------0-----------|------------3-------2-------0---|
|------------3-------------------|--------------------------------|

 |       |       |       |        |       |       |       |        
|--------------------------------|--------------------------------|
|0---0---------------------------|0---0---------------------------|
|------------3-------2-------0---|------------3-------2-------0---|
|--------------------------------|--------------------------------|

 |       |       |       |        |       |       |       |        
|--------------------------------|--------------------------------|
|0---0---------------------------|0---0-------0-------0-----------|
|------------3-------2-------0---|----------------------------0---|
|--------------------------------|--------------------------------|

 |       |       |       |        |       |       |       |        
|--------------------------------|--------------------------------|
|--------------------------------|--------------------------------|
|3---3-------3-------3-------3---|3---3-------3-------3-------3---|
|--------------------------------|--------------------------------|

 |       |       |       |        |       |       |       |        
|--------------------------------|--------------------------------|
|--------------------------------|--------------------------------|
|--------------------------------|--------------------------------|
|1-----------1---1-------1---1---|1-----------1---1-------1-------|

 |       |       |       |        |       |       |       |        
|--------------------------------|--------------------------------|
|--------------------------------|--------------------------------|
|--------------------------------|--------------------------------|
|3-----------3---3-------3-------|3-----------3---3-------3-------|

 |       |       |       |        |       |       |       |        
|--------------------------------|--------------------------------|
|--------------------------------|--------------------------------|
|--------------------------------|--------------------------------|
|3-----------3---3-------3-------|3-----------3---3-------3-------|

 |       |       |       |        |       |       |       |        
|--------------------------------|--------------------------------|
|--------------------------------|--------------------------------|
|0-----------0---0-------0-------|0-----------0---0-------0-------|
|--------------------------------|--------------------------------|

 |       |       |       |        |       |       |       |        
|--------------------------------|--------------------------------|
|--------------------------------|--------------------------------|
|--------------------------------|--------------------------------|
|1-----------1---1-------1-------|1-----------1---1-------1-------|

 |       |       |       |        |       |       |       |        
|--------------------------------|--------------------------------|
|--------------------------------|--------------------------------|
|--------------------------------|--------------------------------|
|3-----------3---3-------3-------|3-----------3---3-------3-------|

 |       |       |       |        |       |       |       |        
|--------------------------------|--------------------------------|
|--------------------------------|--------------------------------|
|--------------------------------|--------------------------------|
|3-----------3---3-------3-------|3-----------3---3-------3-------|

 |       |       |       |        |       |       |       |        
|--------------------------------|--------------------------------|
|--------------------------------|--------------------------------|
|0-----------0---0-------0-------|0-----------0---0-------0-------|
|--------------------------------|--------------------------------|

 |       |       |       |        |       |       |       |        
|--------------------------------|--------------------------------|
|--------------------------------|--------------------------------|
|4-4-4-4-----4-4---4-4---4---4---|4-------4-------4-------4-------|
|--------------------------------|--------------------------------|

 |       |       |       |        |       |       |       |        
|--------------------------------|--------------------------------|
|--------------------------------|0-------0-------0-----------0---|
|2-----------2---4-----------4---|--------------------------------|
|--------------------------------|--------------------------------|

 |       |       |       |        |       |       |       |        
|--------------------------------|--------------------------------|
|--------------------------------|----------------4---------------|
|2-----------2---4-----------4---|------------4---------------4---|
|--------------------------------|2-------------------------------|

 |       |       |       |        |       |       |       |        
|--------------------------------|--------------------------------|
|--------------------------------|0-----------0-------0-----------|
|2-----------2---4-----------4---|--------------------------------|
|--------------------------------|------------------------2---3---|

 |       |       |       |        |       |       |       |        
|--------------------------------|----------------6---6---6-------|
|--------------------------------|--------------------------------|
|0-----------0---------------2---|4-------4-------------------4---|
|----------------0---------------|--------------------------------|

 |       |       |       |        |       |       |       |        
|--------------------------------|--------------------------------|
|--------------------------------|--------------------------------|
|4---4---4---4---4---4---4---4---|2---------------4-----------4---|
|--------------------------------|--------------------------------|

 |       |       |       |        |       |       |       |        
|--------------------------------|--------------------------------|
|0-------0-------0---0---0-------|--------------------------------|
|--------------------------------|2---------------4-----------4---|
|--------------------------------|--------------------------------|

 |       |       |       |        |       |       |       |        
|--------------------------------|--------------------------------|
|------------------4-------------|--------------------------------|
|--------1---4---4-----------4---|2-----------2---4-----------4---|
|2-------------------------------|--------------------------------|

 |       |       |       |        |       |       |       |        
|--------------------------------|--------------------------------|
|0-----------0-------------------|----------------2-------2---2---|
|--------------------------------|0-------0---4-------------------|
|--------------------2---3---4---|--------------------------------|

 |       |       |       |        |       |       |       |        
|6-----4-------------------------|----------------6-6-4-----------|
|----------7-------6-------4-----|------------------------7-------|
|--------------------------------|4---4---4---4---------------4---|
|--------------------------------|--------------------------------|

 |       |       |       |        |       |       |       |        
|--------------------------------|--------------------------------|
|--------------------------------|0---------------0---0-------0---|
|2---------------4-----------4---|--------------------------------|
|--------------------------------|--------------------------------|

 |       |       |       |        |       |       |       |        
|--------------------------------|--------------------------------|
|--------------------------------|----------------4-------4-------|
|2---------------4-----------4---|------------4---------------4---|
|--------------------------------|2-------2-----------------------|

 |       |       |       |        |       |       |       |        
|--------------------------------|--------------------------------|
|--------------------------------|0---------------0---0-------0---|
|2-------2-------4-----------4---|--------------------------------|
|--------------------------------|--------------------------------|

 |       |       |       |        |       |       |       |        
|--------------------------------|6-----4-------------------------|
|----------------2-------2---2---|----------7-------6-------4-----|
|0-------0---4-------------------|--------------------------------|
|--------------------------------|--------------------------------|

 |       |       |       |        |       |       |       |        
|----------------6-6-4-----------|--------------------------------|
|------------------------7-------|--------------------------------|
|4---4---4---4---------------4---|--------------------------------|
|--------------------------------|--------------------------------|




Created with TablEdit http://www.tabledit.com/

............................................................
     
Добавлено: 04.08.2013
Другие материалы по этой песне:
  • Аккорды и текст

Страница создана 04.08.2013
http://primanota.ru/shadows/see-me-feel-me-chords.htm
Привет, Гость.
Предлагаем пройти революционный курс по гитаре.
Подарок от PrimaNota.Ru, забирай!