PrimaNota.ru - самый крупный в мире бесплатный архив песенных текстов, аккордов, табулатур и нот


Shadows - Quartermasters Store - бас-таба, видео

Регистрация Запомнить меня
Войти через:  Facebook Google Twitter Vk Yandex Mail.ru

Shadows - Quartermasters Store - бас-таба, видео

Печатать
Просмотров: 117
Уроки эстрадного вокала в Санкт-Петербурге
Basstab by Jan Bjorklund, Finland; 
jani_bjorklund@yahoo.se 
You are welcome to request for basstabs!
Bienvenidos a pedirme transcripciones para el bajo!


TablEdited by Jan Bjorklund forJohan
Tuning : E A D G 	Time Signature: 4/4

 |       |       |       |        |       |       |       |        
|--------------------------------|--------------------------------|
|--------------------------------|--------------------------------|
|0---------------0---------------|0---------------0---------------|
|--------------------------------|--------------------------------|

 |       |       |       |        |       |       |       |        
|--------------------------------|--------------------------------|
|--------------------------------|--------------------------------|
|0---------------0---------------|0---------------0---------------|
|--------------------------------|--------------------------------|

 |       |       |       |        |       |       |       |        
|--------------------------------|--------------------------------|
|----------------2---2---4---2---|----------------2---2---4---2---|
|0---0---4---4-------------------|0---0---4---4-------------------|
|--------------------------------|--------------------------------|

 |       |       |       |        |       |       |       |        
|--------------------------------|--------------------------------|
|----------------2---2---4---2---|----------------2---2---4---2---|
|0---0---4---4-------------------|0---0---4---4-------------------|
|--------------------------------|--------------------------------|

 |       |       |       |        |       |       |       |        
|----------------4---4---6---4---|--------------------------------|
|--------6---6-------------------|----------------2---2---4---2---|
|7---7---------------------------|0---0---4---4-------------------|
|--------------------------------|--------------------------------|

 |       |       |       |        |       |       |       |        
|--------------------------------|--------------------------------|
|----------------2---2---4---2---|----------------2---2---4---2---|
|0---0---4---4-------------------|0---0---4---4-------------------|
|--------------------------------|--------------------------------|

 |       |       |       |        |       |       |       |        
|--------------------------------|--------------------------------|
|2---2---2---2---2---2---2---2---|----------------2---2---4---2---|
|--------------------------------|0---0---4---4-------------------|
|--------------------------------|--------------------------------|

 |       |       |       |        |       |       |       |        
|--------------------------------|--------------------------------|
|----------------2---2---4---2---|----------------2---2---4---2---|
|0---0---4---0-------------------|0---0---4---4-------------------|
|--------------------------------|--------------------------------|

 |       |       |       |        |       |       |       |        
|----------------4---4---6---4---|--------------------------------|
|--------6---6-------------------|----------------2---2---4---2---|
|7---7---------------------------|0---0---4---4-------------------|
|--------------------------------|--------------------------------|

 |       |       |       |        |       |       |       |        
|--------------------------------|--------------------------------|
|----------------2---2---4---2---|----------------2---2---4---2---|
|0---0---4---4-------------------|0---0---4---4-------------------|
|--------------------------------|--------------------------------|

 |       |       |       |        |       |       |       |        
|--------------------------------|--------------------------------|
|2---2---2---2---2---2---2---2---|----------------2---2---4---2---|
|--------------------------------|0---0---4---4-------------------|
|--------------------------------|--------------------------------|

 |       |       |       |        |       |       |       |        
|--------------------------------|--------------------------------|
|----------------2-------4-------|0-------0-------0-------0-------|
|0---0---4---4-------------------|--------------------------------|
|--------------------------------|--------------------------------|

 |       |       |       |        |       |       |       |        
|4---4---2---2---1---1-----------|----------------4---4---6---6---|
|--------------------------------|--------6---6-------------------|
|------------------------2---5---|7---7---------------------------|
|--------------------------------|--------------------------------|

 |       |       |       |        |       |       |       |        
|--------------------------------|----------------2---2---4---4---|
|----------------2---2---4---4---|--------4---4-------------------|
|0---0---4---4-------------------|5---5---------------------------|
|--------------------------------|--------------------------------|

 |       |       |       |        |       |       |       |        
|----------------4---4---6---6---|--------------------------------|
|--------6---6-------------------|----------------2---2---4---2---|
|7---7---------------------------|0---0---4---4-------------------|
|--------------------------------|--------------------------------|

 |       |       |       |        |       |       |       |        
|--------------------------------|--------------------------------|
|----------------2---2---4---2---|----------------2---2---4---2---|
|0---0---4---4-------------------|0---0---4---4-------------------|
|--------------------------------|--------------------------------|

 |       |       |       |        |       |       |       |        
|--------------------------------|--------------------------------|
|----------------2---2---4---2---|--------------------------------|
|0---0---4---4-------------------|0-------------------------------|
|--------------------------------|--------------------------------|

 |       |       |       |        |       |       |       |        
|--------------------------------|--------------------------------|
|----------------2---2---4---2---|----------------2---2---4---2---|
|0---0---4---4-------------------|0---0---4---4-------------------|
|--------------------------------|--------------------------------|

 |       |       |       |        |       |       |       |        
|----------------4---4---6---4---|--------------------------------|
|--------6---6-------------------|----------------2---2---4---2---|
|7---7---------------------------|0---0---4---4-------------------|
|--------------------------------|--------------------------------|

 |       |       |       |        |       |       |       |        
|--------------------------------|--------------------------------|
|----------------2---2---4---2---|----------------2---2---4---2---|
|0---0---4---4-------------------|0---0---4---4-------------------|
|--------------------------------|--------------------------------|

 |       |       |       |        |       |       |       |        
|--------------------------------|--------------------------------|
|2---2---2---2---2---2---2---2---|----------------2---2---4---2---|
|--------------------------------|0---0---4---0-------------------|
|--------------------------------|--------------------------------|

 |       |       |       |        |       |       |       |        
|--------------------------------|--------------------------------|
|----------------2---2---4---2---|----------------2---2---4---2---|
|0---0---4---4-------------------|0---0---4---4-------------------|
|--------------------------------|--------------------------------|

 |       |       |       |        |       |       |       |        
|--------------------------------|----0---------------------------|
|----------------2---2---4---2---|--------4---2---4---2-----------|
|0---0---4---4-------------------|0-----------------------4-------|
|--------------------------------|--------------------------------|

 |       |       |       |        |       |       |       |        
|--------------------------------|----5---4---2---4---2-----------|
|--------------------------------|------------------------4-------|
|0-------------------------------|--------------------------------|
|--------------------------------|--------------------------------|

 |       |       |       |        |       |       |       |        
|--------------------------------|----0---------------------------|
|0-------------------------------|--------4---2---4---2-----------|
|--------------------------------|------------------------4-------|
|--------------------------------|--------------------------------|

 |       |       |       |        |       |       |       |        
|--------------------------------|--------------------------------|
|----------------2-------4---2---|----------------2---2---4---2---|
|0-------4-----------------------|0---0---4---4-------------------|
|--------------------------------|--------------------------------|

 |       |       |       |        |       |       |       |        
|--------------------------------|--------------------------------|
|2---2---------------------------|0---0---------------------------|
|--------------------------------|--------------------------------|
|--------------------------------|--------------------------------|

 |       |       |       |        |       |       |       |        
|2---2---------------------------|2---2---------------------------|
|--------------------------------|--------------------------------|
|--------------------------------|--------------------------------|
|--------------------------------|--------------------------------|

 |       |       |       |        |       |       |       |        
|--------------------------------|--------------------------------|
|----------------2---2---4---2---|----------------2---2---4---2---|
|0---0---4---4-------------------|0---0---4---4-------------------|
|--------------------------------|--------------------------------|

 |       |       |       |        |       |       |       |        
|--------------------------------|--------------------------------|
|----------------2---2---4---2---|----------------2---2---4---2---|
|0---0---4---4-------------------|0---0---4---4-------------------|
|--------------------------------|--------------------------------|

 |       |       |       |        |       |       |       |        
|----------------4---4---6---4---|--------------------------------|
|--------6---6-------------------|----------------2---2---4---2---|
|7---7---------------------------|0---0---4---0-------------------|
|--------------------------------|--------------------------------|

 |       |       |       |        |       |       |       |        
|--------------------------------|--------------------------------|
|----------------2---2---4---2---|----------------2---2---4---2---|
|0---0---4---4-------------------|0---0---4---4-------------------|
|--------------------------------|--------------------------------|

 |       |       |       |        |       |       |       |        
|--------------------------------|--------------------------------|
|2---2---2---2---2---2---2---2---|----------------2---2---4---2---|
|--------------------------------|0---0---4---4-------------------|
|--------------------------------|--------------------------------|

 |       |       |       |        |       |       |       |        
|--------------------------------|--------------------------------|
|----------------2---2---4---2---|----------------2---2---4---2---|
|0---0---4---4-------------------|0---0---4---4-------------------|
|--------------------------------|--------------------------------|

 |       |       |       |        |       |       |       |        
|----------------4---4---6---4---|--------------------------------|
|--------6---6-------------------|----------------2---2---4---2---|
|7---7---------------------------|0---0---4---4-------------------|
|--------------------------------|--------------------------------|

 |       |       |       |        |       |       |       |        
|--------------------------------|--------------------------------|
|----------------2---2---4---2---|----------------2---2---4-------|
|0---0---4---4-------------------|0---0---4---4---------------4---|
|--------------------------------|--------------------------------|

 |       |       |       |        |       |       |       |        
|--------------------------------|--------------------------------|
|2---2---2---2---2---0-----------|----------------2---2---4---2---|
|------------------------4---2---|0---0---4---4-------------------|
|--------------------------------|--------------------------------|

 |       |       |       |        |       |       |       |        
|--------------------------------|----------------2---2-----------|
|----------------2---2---4---4---|0---0---4---4-----------4---4---|
|0---0---4---4-------------------|--------------------------------|
|--------------------------------|--------------------------------|

 |       |       |       |        |       |       |       |        
|4---4---2---2---1---1-----------|----------------4---4---6---6---|
|--------------------------------|--------6---6-------------------|
|------------------------2---5---|7---7---------------------------|
|--------------------------------|--------------------------------|

 |       |       |       |        |       |       |       |        
|--------------------------------|----------------2---2---4---4---|
|----------------2---2---4---4---|--------4---4-------------------|
|0---0---4---4-------------------|5---5---------------------------|
|--------------------------------|--------------------------------|

 |       |       |       |        |       |       |       |        
|----------------4---4---6---4---|--------------------------------|
|--------6---6-------------------|----------------2-------4---2---|
|7---7---------------------------|0---0---4-----------------------|
|--------------------------------|--------------------------------|

 |       |       |       |        |       |       |       |        
|--------------------------------|--------------------------------|
|----------------2---2---4---4---|----------------2---2---4---4---|
|0---0---4---4-------------------|0---0---4---4-------------------|
|--------------------------------|--------------------------------|

 |       |       |       |        |       |       |       |        
|----------------4---4---6---4---|--------------------------------|
|--------6-----------------------|----------------2---2---4---2---|
|7-------------------------------|0---0---4---4-------------------|
|--------------------------------|--------------------------------|

 |       |       |       |        |       |       |       |        
|--------------------------------|--------------------------------|
|----------------2---2---4---2---|----------------2---2---4---2---|
|0---0---4---4-------------------|0---0---4---4-------------------|
|--------------------------------|--------------------------------|

 |       |       |       |        |       |       |       |        
|--------------------------------|--------------------------------|
|2-------0-----------------------|----------------2---2---4---2---|
|----------------4-------2-------|0---0---4---4-------------------|
|--------------------------------|--------------------------------|

 |       |       |       |        |       |       |       |        
|--------------------------------|--------------------------------|
|----------------2---2---4---2---|----------------2---2---4-------|
|0---0---4---4-------------------|0---0---4---4---------------4---|
|--------------------------------|--------------------------------|

 |       |       |       |        |       |       |       |        
|--------------------------------|--------------------------------|
|2---2---2---2---2---0-----------|----------------2---2---4---2---|
|------------------------4---2---|0---0---4---4-------------------|
|--------------------------------|--------------------------------|


Created with TablEdit http://www.tabledit.com/

     
Добавлено: 25.10.2013
Другие материалы по этой песне:
  • Аккорды и текст

Страница создана 25.10.2013
http://primanota.ru/shadows/quartermasters-store-chords.htm
Привет, Гость.
Предлагаем пройти революционный курс по гитаре.
Подарок от PrimaNota.Ru, забирай!