PrimaNota.ru - самый крупный в мире бесплатный архив песенных текстов, аккордов, табулатур и нот


Shadows - Midnight - таба, бас-таба, видео

Регистрация Запомнить меня
Войти через:  Facebook Google Twitter Vk Yandex Mail.ru

Shadows - Midnight - таба, бас-таба, видео

Печатать
Просмотров: 189
MIDNIGHT

As recorded by The Shadows
(From the 2003 Album A'S, B'S & EP'S )

Music by Hank Marvin & Bruce Welch

Transcribed by Slowhand


Gtr I (E A D G B E) - 'Hank Marvin - Electric Guitar'
Gtr II (E A D G B E) - 'Bruce Welch - Electric Guitar'


  Q=80
  C                Am             F             G7
 4/4
  Gtr I
                                                      |--3--|
  Q      E.      S Q      Q        H.                 E  E  E
|-------------------------------|-----------------------------||
|-------------------------------|-----------------------------||
|------------------9S====14S====|=12--------------------12s11s||
|-------10------12--------------|-----------------------------||
|-------------------------------|-----------------------------||
|-------------------------------|-----------------------------||
|
| Gtr II
| |-3-|  |-3--|    |-3-|  |-3-|    |-3--| |-3-| |-3-| |--3--|
| E E E  E  E E    E E E  E E E    E  E E E E E E E E E  E  E
|-0-0-0--0--0-0----0-0-0--0-0-0-|--1--1-1-1-1-1-1-1-1-1--1--1-||
|-1-1-1--1--1-1----1-1-1--1-1-1-|--1--1-1-1-1-1-0-0-0-0--0--0-||
|-0-0-0--0--0-0----2-2-2--2-2-2-|--2--2-2-2-2-2-0-0-0-0--0--0-||
|-2-2-2--2--2-2----2-2-2--2-2-2-|--3--3-3-3-3-3-0-0-0-0--0--0-||
|-3-3-3--3--3-3----0-0-0--0-0-0-|--3--3-3-3-3-3-2-2-2-2--2--2-||
|-------------------------------|--1--1-1-1-1-1-3-3-3-3--3--3-||


  C            Am
                |--3--|  |--3--|
   H            E  E  E  E  E  E
|--------------10-12-10-10--------|
|--------------------------13-12--|
|-12------------------------------|
|---------------------------------|
|---------------------------------|
|---------------------------------|
|
|  |-3-| |-3-|  |--3--|  |--3--|
|  E E E E E E  E  E  E  E  E  E
|--0-0-0-0-0-0--0--0--0--0--0--0--|
|--1-1-1-1-1-1--1--1--1--1--1--1--|
|--0-0-0-0-0-0--2--2--2--2--2--2--|
|--2-2-2-2-2-2--2--2--2--2--2--2--|
|--3-3-3-3-3-3--0--0--0--0--0--0--|
|---------------------------------|


  F            G7                     C                 Am
                           |--3---|    |--3--|           |--3--|  |--3--|
   H            E    E    +E   E  E    E  E  E  +Q       E  E  E  E  E  E
|--------------10-------------------|-------------------10-12-10-10-------|
|-13----------------13---(13)-12-10-|-------------------------------13-12-|
|-----------------------------------|-12s11s12-(12)-----------------------|
|-----------------------------------|-------------------------------------|
|-----------------------------------|-------------------------------------|
|-----------------------------------|-------------------------------------|
|
|  |-3-| |-3-|  |--3---|   |--3---|    |--3--|   |-3--|  |--3--|  |--3--|
|  E E E E E E  E E    E   E   E  E    E  E  E   E  E E  E  E  E  E  E  E
|--1-1-1-1-1-1--1-1----1---1---1--1-|--0--0--0---0--0-0--0--0--0--0--0--0-|
|--1-1-1-1-1-1--0-0----0---0---0--0-|--1--1--1---1--1-1--1--1--1--1--1--1-|
|--2-2-2-2-2-2--0-0----0---0---0--0-|--0--0--0---0--0-0--2--2--2--2--2--2-|
|--3-3-3-3-3-3--0-0----0---0---0--0-|--2--2--2---2--2-2--2--2--2--2--2--2-|
|--3-3-3-3-3-3--2-2----2---2---2--2-|--3--3--3---3--3-3--0--0--0--0--0--0-|
|--1-1-1-1-1-1--3-3----3---3---3--3-|-------------------------------------|


  F            G7
                           |--3---|
   H            E    E    +E   E  E
|--------------10--------------------|
|-10----------------13---(13)-12-10--|
|------------------------------------|
|------------------------------------|
|------------------------------------|
|------------------------------------|
|
|  |-3-| |-3-|  |--3---|   |--3---|
|  E E E E E E  E E    E   E   E  E
|--1-1-1-1-1-1--1-1----1---1---1--1--|
|--1-1-1-1-1-1--0-0----0---0---0--0--|
|--2-2-2-2-2-2--0-0----0---0---0--0--|
|--3-3-3-3-3-3--0-0----0---0---0--0--|
|--3-3-3-3-3-3--2-2----2---2---2--2--|
|--1-1-1-1-1-1--3-3----3---3---3--3--|


  C                E7
   |--3--|   |--3---|
   E  E  E  +E   E  E  E     Q.
|---------------------------------------|
|--------------------------/17----------|
|-12s11s12-(12)----12-13----------------|
|---------------14----------------------|
|---------------------------------------|
|---------------------------------------|
|
|  |--3--|   |--3---|  |---3----| |-3-|
|  E  E  E   E   E  E  E E      E E E E
|--0--0--0---0---0--0--0-0------0-0-0-0-|
|--1--1--1---1---1--1--0-0------0-0-0-0-|
|--0--0--0---0---0--0--1-1------1-1-1-1-|
|--2--2--2---2---2--2--0-0------0-0-0-0-|
|--3--3--3---3---3--3--2-2------2-2-2-2-|
|----------------------0-0------0-0-0-0-|


  F             G7                 C                   F
         |-3--|          |--3--|    |--3--|   |--3---|          |--3---|
  Q      E E  E  Q      +E  E  E    E  E  E  +E   E  E  Q      +E   E  E
|-------10-8----10-----(10)-8-10-|-12-10------------10-11-----(11)----10-|
|------------10------------------|-------13-(13)-13----------------13----|
|--------------------------------|---------------------------------------|
|--------------------------------|---------------------------------------|
|--------------------------------|---------------------------------------|
|--------------------------------|---------------------------------------|
|
| |-3-|  |-3--|  |-3-|   |--3--|    |--3--|   |--3---|  |-3-|   |--3---|
| E E E  E E  E  E E E   E  E  E    E  E  E   E   E  E  E E E   E   E  E
|-1-1-1--1-1--1--1-1-1---1--1--1-|--0--0--0---0---0--0--1-1-1---1---1--1-|
|-1-1-1--1-1--1--0-0-0---0--0--0-|--1--1--1---1---1--1--1-1-1---1---1--1-|
|-2-2-2--2-2--2--0-0-0---0--0--0-|--0--0--0---0---0--0--2-2-2---2---2--2-|
|-3-3-3--3-3--3--0-0-0---0--0--0-|--2--2--2---2---2--2--3-3-3---3---3--3-|
|-3-3-3--3-3--3--2-2-2---2--2--2-|--3--3--3---3---3--3--3-3-3---3---3--3-|
|-1-1-1--1-1--1--3-3-3---3--3--3-|----------------------1-1-1---1---1--1-|


  C                     C7
                               |--3--|
   Q      S  S   S    S  Q     E  E  E
|--------------------------------------||
|-13--------13-------------------------||
|--------12------9---12----------------||
|-----------------------10-------------||
|--------------------------------12-11-||
|--------------------------------------||
|
|  |-3-|  |---3----|     |-3-| |--3--|
|  E E E  E    E   E     E E E E  E  E
|--0-0-0--0----0---0-----0-0-0-0--0--0-||
|--1-1-1--1----1---1-----1-1-1-1--1--1-||
|--0-0-0--0----0---0-----3-3-3-3--3--3-||
|--2-2-2--2----2---2-----2-2-2-2--2--2-||
|--3-3-3--3----3---3-----3-3-3-3--3--3-||
|--------------------------------------||


  F                                        Em
                                 |--3--|                               |--3---|
   Q      +E.      S  E    E    +E  E  E    Q      +E.     S  E   E   +E   E  E
|----------------------------------------|----------------------------------------|
|----------------------------------------|----------------------------------------|
|----------------------------------------|----------------------------------------|
|-----------------10-12---10---(10)-9----|-----------------9-10---9---(9)---------|
|-12-----(12)-------------------------12-|-10-----(10)--------------------12-10---|
|----------------------------------------|----------------------------------------|
|
|  |-3-|   |-3--|     |--3---|   |--3--|    |-3-|   |-3--|    |--3--|  |--3---|
|  E E E   E  E E     E E    E   E  E  E    E E E   E  E E    E E   E  E   E  E
|--1-1-1---1--1-1-----1-1----1---1--1--1-|--0-0-0---0--0-0----0-0---0--0---0--0---|
|--1-1-1---1--1-1-----1-1----1---1--1--1-|--0-0-0---0--0-0----0-0---0--0---0--0---|
|--2-2-2---2--2-2-----2-2----2---2--2--2-|--0-0-0---0--0-0----0-0---0--0---0--0---|
|--3-3-3---3--3-3-----3-3----3---3--3--3-|--2-2-2---2--2-2----2-2---2--2---2--2---|
|--3-3-3---3--3-3-----3-3----3---3--3--3-|--2-2-2---2--2-2----2-2---2--2---2--2---|
|--1-1-1---1--1-1-----1-1----1---1--1--1-|--0-0-0---0--0-0----0-0---0--0---0--0---|


  F                Fm
                    |--3--|   |--3--|
  Q     +E.      S  E  E  E  +E   E E
|-------------------------------------|
|-------------------------------------|
|-------------------------------------|
|-------------------------------------|
|-8-----(8)-----10-11-10-11-(11)-10-8-|
|-------------------------------------|
|
| |-3-|  |-3--|     |--3--|   |--3--|
| E E E  E  E E     E  E  E   E   E E
|-1-1-1--1--1-1-----1--1--1---1---1-1-|
|-1-1-1--1--1-1-----1--1--1---1---1-1-|
|-2-2-2--2--2-2-----1--1--1---1---1-1-|
|-3-3-3--3--3-3-----3--3--3---3---3-3-|
|-3-3-3--3--3-3-----3--3--3---3---3-3-|
|-1-1-1--1--1-1-----1--1--1---1---1-1-|


  C               C7                 F
  |-3--|                                                      |--3--|
  E E  E  +H             E.      S    H            E    E    +E  E  E
|----------------------------------|----------------------------------|
|----------------------------------|----------------------------------|
|----------------------------------|----------------------------------|
|----------------------------------|--------------12---10---(10)-9----|
|-7-8-10-(10)-----------12------12-|-12----------------------------12-|
|----------------------------------|----------------------------------|
|
| |-3--|   |-3--| |-3-|  |-3--|       |-3-| |-3-|  |--3---|   |--3--|
| E E  E   E  E E E E E  E  E E       E E E E E E  E E    E   E  E  E
|-0-0--0---0--0-0-0-0-0--0--0-0----|--1-1-1-1-1-1--1-1----1---1--1--1-|
|-1-1--1---1--1-1-1-1-1--1--1-1----|--1-1-1-1-1-1--1-1----1---1--1--1-|
|-0-0--0---0--0-0-3-3-3--3--3-3----|--2-2-2-2-2-2--2-2----2---2--2--2-|
|-2-2--2---2--2-2-2-2-2--2--2-2----|--3-3-3-3-3-3--3-3----3---3--3--3-|
|-3-3--3---3--3-3-3-3-3--3--3-3----|--3-3-3-3-3-3--3-3----3---3--3--3-|
|----------------------------------|--1-1-1-1-1-1--1-1----1---1--1--1-|


  Em                                D7
                         |--3---|          |--3--|          |--3--|
   H            E   E   +E   E  E   Q     +E  E  E  Q      +E   E E
|---------------------------------|---------------------------------|
|---------------------------------|---------------------------------|
|---------------------------------|---------------------------------|
|--------------10---9---(9)-------|---------------------------------|
|-10------------------------12-10-|-9-----(9)-9-10-12-----(12)-10-9-|
|---------------------------------|---------------------------------|
|
|  |-3-| |-3-|  |--3--|  |--3---|   |-3-|  |--3--|  |-3-|   |--3--|
|  E E E E E E  E E   E  E   E  E   E E E  E  E  E  E E E   E   E E
|--0-0-0-0-0-0--0-0---0--0---0--0-|-2-2-2--2--2--2--2-2-2---2---2-2-|
|--0-0-0-0-0-0--0-0---0--0---0--0-|-1-1-1--1--1--1--1-1-1---1---1-1-|
|--0-0-0-0-0-0--0-0---0--0---0--0-|-2-2-2--2--2--2--2-2-2---2---2-2-|
|--2-2-2-2-2-2--2-2---2--2---2--2-|-0-0-0--0--0--0--0-0-0---0---0-0-|
|--2-2-2-2-2-2--2-2---2--2---2--2-|---------------------------------|
|--0-0-0-0-0-0--0-0---0--0---0--0-|---------------------------------|


  G7
   |-3--|         |--3--|
   E  E E +Q      E  E  E  +E    S   S
|--------------------------------------||
|--------------------------------------||
|------------------------------------9-||
|-------9-(9)-----9-10-12-(12)---9-----||
|-10-12--------------------------------||
|--------------------------------------||
|
|  |-3--|  |-3--| |--3--|   |--3---|
|  E  E E  E  E E E  E  E   E  E   E
|--1--1-1--1--1-1-1--1--1---1--1---1---||
|--0--0-0--0--0-0-0--0--0---0--0---0---||
|--0--0-0--0--0-0-0--0--0---0--0---0---||
|--0--0-0--0--0-0-0--0--0---0--0---0---||
|--2--2-2--2--2-2-2--2--2---2--2---2---||
|--3--3-3--3--3-3-3--3--3---3--3---3---||


  C            Am
                           |--3---|
   H            E    E    +E   E  E
|--------------12---10---(10)-------|
|--------------13---12---(12)-13-12-|
|-12--------------------------14-12-|
|-----------------------------------|
|-----------------------------------|
|-----------------------------------|
|
|  |-3-| |-3-|  |--3---|   |--3---|
|  E E E E E E  E E    E   E   E  E
|--0-0-0-0-0-0--0-0----0---0---0--0-|
|--1-1-1-1-1-1--1-1----1---1---1--1-|
|--0-0-0-0-0-0--2-2----2---2---2--2-|
|--2-2-2-2-2-2--2-2----2---2---2--2-|
|--3-3-3-3-3-3--0-0----0---0---0--0-|
|-----------------------------------|


  F            G7                   C           Am
                           |-3--|                           |--3---|
   H            E    E    +E  E E   H            E    E    +E   E  E
|---------------------------------|-------------12---10---(10)-------|
|-10-----------12---10---(10)-8-7-|-8-----------13---12---(12)-13-12-|
|-10-----------12---10---(10)-9-8-|-9--------------------------14-12-|
|---------------------------------|----------------------------------|
|---------------------------------|----------------------------------|
|---------------------------------|----------------------------------|
|
|  |-3-| |-3-|  |--3---|   |-3--|   |-3-| |-3-|  |--3---|   |--3---|
|  E E E E E E  E E    E   E  E E   E E E E E E  E E    E   E   E  E
|--1-1-1-1-1-1--1-1----1---1--1-1-|-0-0-0-0-0-0--0-0----0---0---0--0-|
|--1-1-1-1-1-1--0-0----0---0--0-0-|-1-1-1-1-1-1--1-1----1---1---1--1-|
|--2-2-2-2-2-2--0-0----0---0--0-0-|-0-0-0-0-0-0--2-2----2---2---2--2-|
|--3-3-3-3-3-3--0-0----0---0--0-0-|-2-2-2-2-2-2--2-2----2---2---2--2-|
|--3-3-3-3-3-3--2-2----2---2--2-2-|-3-3-3-3-3-3--0-0----0---0---0--0-|
|--1-1-1-1-1-1--3-3----3---3--3-3-|----------------------------------|


  F                      G7
                           |-3--|
   H            E    E    +E  E E
|---------------------------------|
|-10-----------12---10---(10)-8-7-|
|-10-----------12---10---(10)-9-8-|
|---------------------------------|
|---------------------------------|
|---------------------------------|
|
|  |-3-| |-3-|  |--3---|   |-3--|
|  E E E E E E  E E    E   E  E E
|--1-1-1-1-1-1--1-1----1---1--1-1-|
|--1-1-1-1-1-1--0-0----0---0--0-0-|
|--2-2-2-2-2-2--0-0----0---0--0-0-|
|--3-3-3-3-3-3--0-0----0---0--0-0-|
|--3-3-3-3-3-3--2-2----2---2--2-2-|
|--1-1-1-1-1-1--3-3----3---3--3-3-|


  C             E7                 F             G7
         |-3--|                           |-3--|          |--3--|
  Q     +E  E E E     Q.           Q      E E  E  Q      +E  E  E
|-------------------/12----------|-------10-8----10-----(10)-8-10--|
|-8-----(8)---8-9----------------|------------10-------------------|
|-9-----(9)-9--------------------|---------------------------------|
|--------------------------------|---------------------------------|
|--------------------------------|---------------------------------|
|--------------------------------|---------------------------------|
|
| |-3-|  |-3--| |---3----| |-3-|   |-3-|  |-3--|  |-3-|   |--3--|
| E E E  E  E E E E      E E E E   E E E  E E  E  E E E   E  E  E
|-0-0-0--0--0-0-0-0------0-0-0-0-|-1-1-1--1-1--1--1-1-1---1--1--1--|
|-1-1-1--1--1-1-0-0------0-0-0-0-|-1-1-1--1-1--1--0-0-0---0--0--0--|
|-0-0-0--0--0-0-1-1------1-1-1-1-|-2-2-2--2-2--2--0-0-0---0--0--0--|
|-2-2-2--2--2-2-0-0------0-0-0-0-|-3-3-3--3-3--3--0-0-0---0--0--0--|
|-3-3-3--3--3-3-2-2------2-2-2-2-|-3-3-3--3-3--3--2-2-2---2--2--2--|
|---------------0-0------0-0-0-0-|-1-1-1--1-1--1--3-3-3---3--3--3--|


  C                     F
   |-3--|                     |--3--|   |--3--|
   E  E E +E.      S  S  S    S  S  S  +E  E  E
|-11-10-8-(8)-----10-11-10---11-10-11-(11)-8----|
|--------------------------------------------10-|
|-----------------------------------------------|
|-----------------------------------------------|
|-----------------------------------------------|
|-----------------------------------------------|
|
|  |-3--|  |-3--|     |----3-----|      |--3--|
|  E  E E  E  E E     E    E     E      E  E  E
|--0--0-0--0--0-0-----1----1-----1------1--1--1-|
|--1--1-1--1--1-1-----1----1-----1------1--1--1-|
|--0--0-0--0--0-0-----2----2-----2------2--2--2-|
|--2--2-2--2--2-2-----3----3-----3------3--3--3-|
|--3--3-3--3--3-3-----3----3-----3------3--3--3-|
|---------------------1----1-----1------1--1--1-|


  C                 C7
  Q     S S   S   S  H
|-8-------8----------------------||
|-------8---------8--------------||
|-------------9------------------||
|-------------------10-----------||
|--------------------------------||
|--------------------------------||
|
| |-3-| |---3---|    |-3-| |-3-|
| E E E E   E   E    E E E E E E
|-0-0-0-0---0---0----0-0-0-0-0-0-||
|-1-1-1-1---1---1----1-1-1-1-1-1-||
|-0-0-0-0---0---0----3-3-3-3-3-3-||
|-2-2-2-2---2---2----2-2-2-2-2-2-||
|-3-3-3-3---3---3----3-3-3-3-3-3-||
|--------------------------------||


  F
   |--3---|                         |---3----|
   E   E  E    +E.    S  E    E    +E     E  E
|-----------------------10-----------------------|
|-10---9-10---(10)---13------13---(13)---12-10---|
|------------------------------------------------|
|------------------------------------------------|
|------------------------------------------------|
|------------------------------------------------|
|
|  S E      S   S  E  S  S E    S   S  E       S
|--1--------1---1-----1--1------1---1----------1-|
|--1--------1---1-----1--1------1---1----------1-|
|--2--------2---2-----2--2------2---2----------2-|
|--3--------3---3-----3--3------3---3----------3-|
|--3--------3---3-----3--3------3---3----------3-|
|--1--------1---1-----1--1------1---1----------1-|


  Em                                          F                Fm
                               |---3----|                             |---3----|
   Q      +E.    S  E    E    +E     E  E      Q      +E.    S Q     +E     E  E
|-------------------------------------------|----------------------------------------|
|---------------12-13---12---(12)---10------|------------------9-----(9)-------------|
|-12-----(12)--------------------------12---|-10-----(10)---12-------------12-10-----|
|-------------------------------------------|----------------------------------------|
|-------------------------------------------|----------------------------------------|
|-------------------------------------------|----------------------------------------|
|
|  S E S   S  E  S  S E    S   S  E       S    S E S   S  E  S S E S  S  E       S
|--0---0---0-----0--0------0---0----------0-|--1---1---1-----1-1---1--1----------1---|
|--0---0---0-----0--0------0---0----------0-|--1---1---1-----1-1---1--1----------1---|
|--0---0---0-----0--0------0---0----------0-|--2---2---2-----2-1---1--1----------1---|
|--2---2---2-----2--2------2---2----------2-|--3---3---3-----3-3---3--3----------3---|
|--2---2---2-----2--2------2---2----------2-|--3---3---3-----3-3---3--3----------3---|
|--0---0---0-----0--0------0---0----------0-|--1---1---1-----1-1---1--1----------1---|


  C                    C7               F
  |---3---|                                                      |---3----|
  E    E  E    +H            E    E      H            E    E    +E     E  E
|-------------------------------------|--------------10-----------------------|
|--------------------------------10---|-10----------------13---(13)---12-10---|
|-9---10-12---(12)--------------------|---------------------------------------|
|-------------------------------------|---------------------------------------|
|-------------------------------------|---------------------------------------|
|-------------------------------------|---------------------------------------|
|
| S E       S   S  E S S E S S E    S    S E S S E S  S E    S   S  E       S
|-0---------0---0----0-0---0-0------0-|--1---1-1---1--1------1---1----------1-|
|-1---------1---1----1-1---1-1------1-|--1---1-1---1--1------1---1----------1-|
|-0---------0---0----0-3---3-3------3-|--2---2-2---2--2------2---2----------2-|
|-2---------2---2----2-2---2-2------2-|--3---3-3---3--3------3---3----------3-|
|-3---------3---3----3-3---3-3------3-|--3---3-3---3--3------3---3----------3-|
|-------------------------------------|--1---1-1---1--1------1---1----------1-|


  Em
                           |---3----|
   H            E    E    +E     E  E
|--------------10-----------------------|
|-------------------13---(13)---12-10---|
|-12------------------------------------|
|---------------------------------------|
|---------------------------------------|
|---------------------------------------|
|
|  S E S S E S  S E    S   S  E       S
|--0---0-0---0--0------0---0----------0-|
|--0---0-0---0--0------0---0----------0-|
|--0---0-0---0--0------0---0----------0-|
|--2---2-2---2--2------2---2----------2-|
|--2---2-2---2--2------2---2----------2-|
|--0---0-0---0--0------0---0----------0-|


  D7
           |---3----|            |---3----|
   Q      +E     E  E    Q      +E     E  E
|---------------------------------------------|
|-----------------------10-----(10)-----------|
|-11-----(11)---11-12-----------------12-11---|
|---------------------------------------------|
|---------------------------------------------|
|---------------------------------------------|
|
|  S E S   S  E       S  S E S   S  E       S
|--2---2---2----------2--2---2---2----------2-|
|--1---1---1----------1--1---1---1----------1-|
|--2---2---2----------2--2---2---2----------2-|
|--0---0---0----------0--0---0---0----------0-|
|---------------------------------------------|
|---------------------------------------------|


  G7
   |---3---|             |---3---|
   E    E  E    +Q       E    E  E    +E     S S
|-------------------------------10---(10)---------||
|---------12---(12)-----12---13-------------------||
|-12---14--------------------------------------9--||
|-------------------------------------------10----||
|-------------------------------------------------||
|-------------------------------------------------||
|
|  S E       S   S  E S  S E       S   S  E    S
|--1---------1---1----1--1---------1---1-------1--||
|--0---------0---0----0--0---------0---0-------0--||
|--0---------0---0----0--0---------0---0-------0--||
|--0---------0---0----0--0---------0---0-------0--||
|--2---------2---2----2--2---------2---2-------2--||
|--3---------3---3----3--3---------3---3-------3--||


  C            Am                  F            G7
                |--3--|  |--3--|                            |--3---|
   H            E  E  E  E  E  E    H            E    E    +E   E  E
|--------------10-12-10-10-------|--------------10-------------------|
|--------------------------13-12-|-13----------------13---(13)-12-10-|
|-12-----------------------------|-----------------------------------|
|--------------------------------|-----------------------------------|
|--------------------------------|-----------------------------------|
|--------------------------------|-----------------------------------|
|
|  |-3-| |-3-|  |--3--|  |--3--|    |-3-| |-3-|  |--3---|   |--3---|
|  E E E E E E  E  E  E  E  E  E    E E E E E E  E E    E   E   E  E
|--0-0-0-0-0-0--0--0--0--0--0--0-|--1-1-1-1-1-1--1-1----1---1---1--1-|
|--1-1-1-1-1-1--1--1--1--1--1--1-|--1-1-1-1-1-1--0-0----0---0---0--0-|
|--0-0-0-0-0-0--2--2--2--2--2--2-|--2-2-2-2-2-2--0-0----0---0---0--0-|
|--2-2-2-2-2-2--2--2--2--2--2--2-|--3-3-3-3-3-3--0-0----0---0---0--0-|
|--3-3-3-3-3-3--0--0--0--0--0--0-|--3-3-3-3-3-3--2-2----2---2---2--2-|
|--------------------------------|--1-1-1-1-1-1--3-3----3---3---3--3-|


  C                 Am
   |--3--|           |--3--|  |--3--|
   E  E  E  +Q       E  E  E  E  E  E
|-------------------10-12-10-10-------|
|-------------------------------13-12-|
|-12s11s12-(12)-----------------------|
|-------------------------------------|
|-------------------------------------|
|-------------------------------------|
|
|  |--3--|   |-3--|  |--3--|  |--3--|
|  E  E  E   E  E E  E  E  E  E  E  E
|--0--0--0---0--0-0--0--0--0--0--0--0-|
|--1--1--1---1--1-1--1--1--1--1--1--1-|
|--0--0--0---0--0-0--2--2--2--2--2--2-|
|--2--2--2---2--2-2--2--2--2--2--2--2-|
|--3--3--3---3--3-3--0--0--0--0--0--0-|
|-------------------------------------|


                           |--3---|
   H            E    E    +E   E  E
|--------------10-------------------|
|-10----------------13---(13)-12-10-|
|-----------------------------------|
|-----------------------------------|
|-----------------------------------|
|-----------------------------------|
|
|  |-3-| |-3-|  |--3---|   |--3---|
|  E E E E E E  E E    E   E   E  E
|--1-1-1-1-1-1--1-1----1---1---1--1-|
|--1-1-1-1-1-1--0-0----0---0---0--0-|
|--2-2-2-2-2-2--0-0----0---0---0--0-|
|--3-3-3-3-3-3--0-0----0---0---0--0-|
|--3-3-3-3-3-3--2-2----2---2---2--2-|
|--1-1-1-1-1-1--3-3----3---3---3--3-|


   |--3--|   |--3---|                            |-3--|          |--3--|
   E  E  E  +E   E  E  E     Q.           Q      E E  E  Q      +E  E  E
|---------------------------------------|-------10-8----10-----(10)-8-10--|
|--------------------------/17----------|------------10-------------------|
|-12s11s12-(12)----12-13----------------|---------------------------------|
|---------------14----------------------|---------------------------------|
|---------------------------------------|---------------------------------|
|---------------------------------------|---------------------------------|
|
|  |--3--|   |--3---|  |---3----| |-3-|   |-3-|  |-3--|  |-3-|   |--3--|
|  E  E  E   E   E  E  E E      E E E E   E E E  E E  E  E E E   E  E  E
|--0--0--0---0---0--0--0-0------0-0-0-0-|-1-1-1--1-1--1--1-1-1---1--1--1--|
|--1--1--1---1---1--1--0-0------0-0-0-0-|-1-1-1--1-1--1--0-0-0---0--0--0--|
|--0--0--0---0---0--0--1-1------1-1-1-1-|-2-2-2--2-2--2--0-0-0---0--0--0--|
|--2--2--2---2---2--2--0-0------0-0-0-0-|-3-3-3--3-3--3--0-0-0---0--0--0--|
|--3--3--3---3---3--3--2-2------2-2-2-2-|-3-3-3--3-3--3--2-2-2---2--2--2--|
|----------------------0-0------0-0-0-0-|-1-1-1--1-1--1--3-3-3---3--3--3--|


   |--3--|   |--3---|          |--3---|
   E  E  E  +E   E  E  Q      +E   E  E
|-12-10------------10-11-----(11)----10-|
|-------13-(13)-13----------------13----|
|---------------------------------------|
|---------------------------------------|
|---------------------------------------|
|---------------------------------------|
|
|  |--3--|   |--3---|  |-3-|   |--3---|
|  E  E  E   E   E  E  E E E   E   E  E
|--0--0--0---0---0--0--1-1-1---1---1--1-|
|--1--1--1---1---1--1--1-1-1---1---1--1-|
|--0--0--0---0---0--0--2-2-2---2---2--2-|
|--2--2--2---2---2--2--3-3-3---3---3--3-|
|--3--3--3---3---3--3--3-3-3---3---3--3-|
|----------------------1-1-1---1---1--1-|


   |--3--|   |--3---|          |--3---|
   E  E  E  +E   E  E  Q      +E   E  E    Q      Q      Q      Q
|-12-10------------10-11-----(11)----10-|-15-----12--------------------|
|-------13-(13)-13----------------13----|---------------13-----10------|
|---------------------------------------|------------------------------|
|---------------------------------------|------------------------------|
|---------------------------------------|------------------------------|
|---------------------------------------|------------------------------|
|
|  |--3--|   |--3---|  |-3-|   |--3---|    |-3-|  |-3-|  |-3-|  |-3-|
|  E  E  E   E   E  E  E E E   E   E  E    E E E  E E E  E E E  E E E
|--0--0--0---0---0--0--1-1-1---1---1--1-|--0-0-0--0-0-0--0-0-0--0-0-0--|
|--1--1--1---1---1--1--1-1-1---1---1--1-|--1-1-1--1-1-1--1-1-1--1-1-1--|
|--0--0--0---0---0--0--2-2-2---2---2--2-|--0-0-0--0-0-0--2-2-2--2-2-2--|
|--2--2--2---2---2--2--3-3-3---3---3--3-|--2-2-2--2-2-2--2-2-2--2-2-2--|
|--3--3--3---3---3--3--3-3-3---3---3--3-|--3-3-3--3-3-3--0-0-0--0-0-0--|
|----------------------1-1-1---1---1--1-|------------------------------|


  F             G7              C
    H             H             Q      E    E    Q      Q
|-^13-----------^15-----------|------------10S==12S====17-----|
|-^13-----------^15-----------|-------13----------------------|
|-^14-----------^16-----------|-------------------------------|
|-^15-----------^17-----------|-------------------------------|
|-----------------------------|-------------------------------|
|-----------------------------|-------------------------------|
|
|   |-3-| |-3-|   |-3-| |-3-|   |-3-|  |--3---|  |-3-|  |-3-|
|   E E E E E E   E E E E E E   E E E  E E    E  E E E  E E E
|---1-1-1-1-1-1---1-1-1-1-1-1-|-0-0-0--0-0----0--0-0-0--0-0-0-|
|---1-1-1-1-1-1---0-0-0-0-0-0-|-1-1-1--1-1----1--1-1-1--1-1-1-|
|---2-2-2-2-2-2---0-0-0-0-0-0-|-0-0-0--0-0----0--2-2-2--2-2-2-|
|---3-3-3-3-3-3---0-0-0-0-0-0-|-2-2-2--2-2----2--2-2-2--2-2-2-|
|---3-3-3-3-3-3---2-2-2-2-2-2-|-3-3-3--3-3----3--0-0-0--0-0-0-|
|---1-1-1-1-1-1---3-3-3-3-3-3-|-------------------------------|


  F                 G7                   C
   |--3--|                     |--3--|
   E  E  E  +H            E    S  S  S    +W
|-15s14s15-(15)---------------------15-|-(15)----*|
|--------------------------------17----|-(17)----*|
|-----------------------------17-------|-(17)----*|
|--------------------------------------|---------*|
|--------------------------------------|---------*|
|--------------------------------------|---------*|
|
|  |--3--|   |-3--| |-3-| |---3---|
|  E  E  E   E  E E E E E E E     E        W
|--1--1--1---1--1-1-1-1-1-1-1-----1----|---0-----*|
|--1--1--1---1--1-1-0-0-0-0-0-----0----|---1-----*|
|--2--2--2---2--2-2-0-0-0-0-0-----0----|---0-----*|
|--3--3--3---3--3-3-0-0-0-0-0-----0----|---2-----*|
|--3--3--3---3--3-3-2-2-2-2-2-----2----|---3-----*|
|--1--1--1---1--1-1-3-3-3-3-3-----3----|---------*|


Duration Legend
---------------
W - whole; H - half; Q - quarter; E - 8th; S - 16th; T - 32nd; X - 64th; a - acciaccatura
+ - note tied to previous; . - note dotted; .. - note double dotted
Uncapitalized letters represent notes that are staccato (1/2 duration)
Irregular groupings are notated above the duration line
Duration letters will always appear directly above the note/fret number it represents the
duration for.  Duration letters with no fret number below them represent rests.  Multi-
bar rests are notated in the form Wxn, where n is the number of bars to rest for.  Low
melody durations appear below the staff

Tablature Legend
----------------
 h   - hammer-on
 p   - pull-off
 b   - bend
 pb  - pre-bend
 r   - bend release (if no number after the r, then release immediately)
 /\  - slide into or out of (from/to "nowhere")
 s   - legato slide
 S   - shift slide
  - natural harmonic
[n]  - artificial harmonic
n(n) - tapped harmonic
 ~   - vibrato
 tr  - trill
 T   - tap
 TP  - trem. picking
 PM  - palm muting
\n/  - tremolo bar dip; n = amount to dip
 \n  - tremolo bar down
 n/  - tremolo bar up
/n\  - tremolo bar inverted dip
 =   - hold bend; also acts as connecting device for hammers/pulls
 <>  - volume swell (louder/softer)
 x   - on rhythm slash represents muted slash
 o   - on rhythm slash represents single note slash

Misc Legend
-----------
 |  - bar
||  - double bar
||o - repeat start
o|| - repeat end
*|  - double bar (ending)
 :  - bar (freetime)
 $  - Segno
 &  - Coda
Tempo markers -  = BPM(8/16=s8/s16), where s8 = swing 8ths, s16 = swing 16ths
Добавлено: 17.05.2015
Другие материалы по этой песне:

Страница создана 10.07.2012
http://primanota.ru/shadows/midnight-chords.htm
Привет, Гость.
Предлагаем пройти революционный курс по гитаре.
Подарок от PrimaNota.Ru, забирай!