PrimaNota.ru - самый крупный в мире бесплатный архив песенных текстов, аккордов, табулатур и нот


Shadows - National Provincial Samba - таба, бас-таба, видео

Регистрация Запомнить меня
Войти через:  Facebook Google Twitter Vk Yandex Mail.ru

Shadows - National Provincial Samba - таба, бас-таба, видео

Печатать
Просмотров: 134
NATIONAL PROVINCIAL SAMBA

As recorded by The Shadows
(From the 1965 Album THE SOUND OF THE SHADOWS)

Music by John Rostill & Bruce Welch

Transcribed by Slowhand


Gtr I (E A D G B E) - 'Hank Marvin - Electric Guitar'
Gtr II (E A D G B E) - 'Bruce Welch - Electric Guitar'
Gtr III (E A D G B E) - 'Hank marvin - Electric Guitar'


  Q=226
             A                                         Bm
 4/4
  Gtr II
  W           Q  E E  E E Q        Q     E E  E E Q     Q   E E  E  E Q
|----------|--0--0-0--0-0-0----|---0-----0-0--0-0-0--|--2---2-2--2--2-2----|
|----------|--2--2-2--2-2-2----|---2-----2-2--2-2-2--|--3---3-3--3--3-3----|
|----------|--2--2-2--2-2-2----|---2-----2-2--2-2-2--|--4---4-4--4--4-4----|
|----------|--2--2-2--2-2-2----|---2-----2-2--2-2-2--|--4---4-4--4--4-4----|
|----------|--0--0-0--0-0-0----|---0-----0-0--0-0-0--|--2---2-2--2--2-2----|
|----------|-------------------|---------------------|---------------------|
|
| Gtr III
| W           Q  Q    E E E  E    +E   E Q    E E Q     Q   Q    E  E E  E
|----------|-------------------|---------------------|---------------------|
|----------|-10-------------10-|-(10)-10-------------|-12---------------12-|
|----------|-----9-------------|---------9-----------|-----11--------------|
|----------|---------11-9-7----|-------------11-9-7--|----------12-11-9----|
|----------|-------------------|---------------------|---------------------|
|----------|-------------------|---------------------|---------------------|


                         E
    Q      E E  E E Q     Q   E E  E  E  Q
|---2------2-2--2-2-2--|--0---0-0--0--0--0----|
|---3------3-3--3-3-3--|--0---0-0--0--0--0----|
|---4------4-4--4-4-4--|--1---1-1--1--1--1----|
|---4------4-4--4-4-4--|--2---2-2--2--2--2----|
|---2------2-2--2-2-2--|--2---2-2--2--2--2----|
|----------------------|--0---0-0--0--0--0----|
|
|  +E   E  Q    E E Q     Q   Q    E  E  E  E
|----------------------|----------------------|
|-(12)-12--------------|-12----------------12-|
|---------11-----------|-----13---------------|
|--------------11-9-7--|----------14-13-12----|
|----------------------|----------------------|
|----------------------|----------------------|


                           A
    Q      E E  E  E  Q     Q     E E E E  Q
|---0------0-0--0--0--0--|--0-----0-0-0-0--0---|
|---0------0-0--0--0--0--|--2-----2-2-2-2--2---|
|---1------1-1--1--1--1--|--2-----2-2-2-2--2---|
|---2------2-2--2--2--2--|--2-----2-2-2-2--2---|
|---2------2-2--2--2--2--|--0-----0-0-0-0--0---|
|---0------0-0--0--0--0--|---------------------|
|
|  +E   E  Q    E  E  Q     E  E  H        Q
|------------------------|---------------------|
|-(12)-12----------------|---------------------|
|---------13-------------|-14----14-------12---|
|--------------14-13-12--|-14p12h14-------12---|
|------------------------|---------------------|
|------------------------|---------------------|


   Q  E E E E Q     Q  E E  E E Q
|--0--0-0-0-0-0--|--0--0-0--0-0-0----|
|--2--2-2-2-2-2--|--2--2-2--2-2-2----|
|--2--2-2-2-2-2--|--2--2-2--2-2-2----|
|--2--2-2-2-2-2--|--2--2-2--2-2-2----|
|--0--0-0-0-0-0--|--0--0-0--0-0-0----|
|----------------|-------------------|
|
|  Q  Q   H         Q  Q    E E E  E
|----------------|-------------------|
|----------------|-10-------------10-|
|--9-------------|-----9-------------|
|-11-------------|---------11-9-7----|
|----------------|-------------------|
|----------------|-------------------|


                        Bm
    Q     E E  E E Q     Q   E E  E  E Q
|---0-----0-0--0-0-0--|--2---2-2--2--2-2-----|
|---2-----2-2--2-2-2--|--3---3-3--3--3-3-----|
|---2-----2-2--2-2-2--|--4---4-4--4--4-4-----|
|---2-----2-2--2-2-2--|--4---4-4--4--4-4-----|
|---0-----0-0--0-0-0--|--2---2-2--2--2-2-----|
|---------------------|----------------------|
|
|  +E   E Q    E E Q     Q   Q    E  E E  E
|---------------------|----------------------|
|-(10)-10-------------|-12---------------12--|
|---------9-----------|-----11---------------|
|-------------11-9-7--|----------12-11-9-----|
|---------------------|----------------------|
|---------------------|----------------------|


                         E
    Q      E E  E E Q     Q   E E  E  E  Q
|---2------2-2--2-2-2--|--0---0-0--0--0--0----|
|---3------3-3--3-3-3--|--0---0-0--0--0--0----|
|---4------4-4--4-4-4--|--1---1-1--1--1--1----|
|---4------4-4--4-4-4--|--2---2-2--2--2--2----|
|---2------2-2--2-2-2--|--2---2-2--2--2--2----|
|----------------------|--0---0-0--0--0--0----|
|
|  +E   E  Q    E E Q     Q   Q    E  E  E  E
|----------------------|----------------------|
|-(12)-12--------------|-12----------------12-|
|---------11-----------|-----13---------------|
|--------------11-9-7--|----------14-13-12----|
|----------------------|----------------------|
|----------------------|----------------------|


                            A   N.C.
    Q      E E  E  E  Q     E E Q  H
|---0------0-0--0--0--0---|-0-------------|
|---0------0-0--0--0--0---|-2-------------|
|---1------1-1--1--1--1---|-2-------------|
|---2------2-2--2--2--2---|-2-------------|
|---2------2-2--2--2--2---|-0-------------|
|---0------0-0--0--0--0---|---------------|
|
|  +E   E  Q    E  E  Q     E E Q  Q  Q
|-------------------------|-5-------------|
|-(12)-12-----------------|-5-------------|
|---------13--------------|-6-------------|
|--------------14-13-12\--|-----2--1--2---|
|-------------------------|---------------|
|-------------------------|---------------|


                 E7
  W              Q  E E E E Q    Q  E E E E Q    Q  E E E E Q
|-------------||-0--0-0-0-0-0--|-0--0-0-0-0-0--|-0--0-0-0-0-0---|
|-------------||-0--0-0-0-0-0--|-0--0-0-0-0-0--|-0--0-0-0-0-0---|
|-------------||-1--1-1-1-1-1--|-1--1-1-1-1-1--|-1--1-1-1-1-1---|
|-------------||-0--0-0-0-0-0--|-0--0-0-0-0-0--|-0--0-0-0-0-0---|
|-------------||-2--2-2-2-2-2--|-2--2-2-2-2-2--|-2--2-2-2-2-2---|
|-------------||-0--0-0-0-0-0--|-0--0-0-0-0-0--|-0--0-0-0-0-0---|
|
| Q  Q  Q  Q     W               W               Q  Q   Q   Q
|-------------||---------------|---------------|----------------|
|-------------||---------------|---------------|----------------|
|-------------||---------------|---------------|----------------|
|-4--2--0-----||---------------|---------------|----2---1---2---|
|----------4--||-2-------------|---------------|----------------|
|-------------||---------------|-4-------------|----------------|


  E7               A
  Q  E E E E Q      Q   E E E E Q     Q   E E E E Q    Q  E E E E Q
|-0--0-0-0-0-0---|--0---0-0-0-0-0--|--0---0-0-0-0-0--|-0--0-0-0-0-0---|
|-0--0-0-0-0-0---|--2---2-2-2-2-2--|--2---2-2-2-2-2--|-2--2-2-2-2-2---|
|-1--1-1-1-1-1---|--2---2-2-2-2-2--|--2---2-2-2-2-2--|-2--2-2-2-2-2---|
|-0--0-0-0-0-0---|--2---2-2-2-2-2--|--2---2-2-2-2-2--|-2--2-2-2-2-2---|
|-2--2-2-2-2-2---|--0---0-0-0-0-0--|--0---0-0-0-0-0--|-0--0-0-0-0-0---|
|-0--0-0-0-0-0---|-----------------|-----------------|----------------|
|
| Q  Q   E Q   E   +W                +W                Q  Q   Q   Q
|----------------|-----------------|-----------------|----------------|
|----------------|-----------------|-----------------|----------------|
|----------------|-----------------|-----------------|----------------|
|-4--2---1-----2-|-(2)-------------|-(2)-------------|----2---1---2---|
|----------4-----|-----------------|-----------------|----------------|
|----------------|-----------------|-----------------|----------------|


                  E7
  Q  E E E E Q    Q  E E E E Q    Q  E E E E Q    Q  E E E E Q
|-0--0-0-0-0-0--|-0--0-0-0-0-0--|-0--0-0-0-0-0--|-0--0-0-0-0-0---|
|-2--2-2-2-2-2--|-0--0-0-0-0-0--|-0--0-0-0-0-0--|-0--0-0-0-0-0---|
|-2--2-2-2-2-2--|-1--1-1-1-1-1--|-1--1-1-1-1-1--|-1--1-1-1-1-1---|
|-2--2-2-2-2-2--|-0--0-0-0-0-0--|-0--0-0-0-0-0--|-0--0-0-0-0-0---|
|-0--0-0-0-0-0--|-2--2-2-2-2-2--|-2--2-2-2-2-2--|-2--2-2-2-2-2---|
|---------------|-0--0-0-0-0-0--|-0--0-0-0-0-0--|-0--0-0-0-0-0---|
|
| Q  Q   Q   Q    W               W               Q  Q   Q   Q
|---------------|---------------|---------------|----------------|
|---------------|-3-------------|---------------|----------------|
|---------------|---------------|-4-------------|-1--------------|
|-4--2---1---2--|---------------|---------------|----2---1---2---|
|---------------|---------------|---------------|----------------|
|---------------|---------------|---------------|----------------|


                  A
  Q  E E E E Q    E E Q  H       E E Q  H       E E Q  H
|-0--0-0-0-0-0--|-0------------|-0------------|-0-------------|
|-0--0-0-0-0-0--|-2------------|-0------------|-2-------------|
|-1--1-1-1-1-1--|-2------------|-1------------|-2-------------|
|-0--0-0-0-0-0--|-2------------|-0------------|-2-------------|
|-2--2-2-2-2-2--|-0------------|-2------------|-0-------------|
|-0--0-0-0-0-0--|--------------|-0------------|---------------|
|
| Q  Q   Q   Q    E E Q  Q  Q    Q   Q  Q  Q    E E Q  Q  Q
|---------------|--------------|--------------|---------------|
|---------------|--------------|--------------|---------------|
|---------------|--------------|--------------|---------------|
|-0-------------|-----2--1--2--|-0------------|-----2--1--2---|
|----2----------|-0------------|-----2--------|-0-------------|
|--------4---0--|--------------|--------4--0--|---------------|


                 E7
  Gtr I
  W              Q  Q   Q   Q    Q  Q   E Q   E   +H       H
|-------------||----0-------0--|-2--0-----------|------------------|
|-------------||--------4------|--------3-2---0-|-(0)--------------|
|-------------||---------------|----------------|------------------|
|-------------||---------------|----------------|------------------|
|-------------||---------------|----------------|------------------|
|-------------||---------------|----------------|------------------|
|
| Gtr II
| W              Q  E E E E Q    Q  E E E E Q      Q   E E E E Q
|-------------||-0--0-0-0-0-0--|-0--0-0-0-0-0---|--0---0-0-0-0-0---|
|-------------||-0--0-0-0-0-0--|-0--0-0-0-0-0---|--0---0-0-0-0-0---|
|-------------||-1--1-1-1-1-1--|-1--1-1-1-1-1---|--1---1-1-1-1-1---|
|-------------||-0--0-0-0-0-0--|-0--0-0-0-0-0---|--0---0-0-0-0-0---|
|-------------||-2--2-2-2-2-2--|-2--2-2-2-2-2---|--2---2-2-2-2-2---|
|-------------||-0--0-0-0-0-0--|-0--0-0-0-0-0---|--0---0-0-0-0-0---|
|
| Gtr III
| Q  Q  Q  Q     W               W                 Q   Q   Q   Q
|-------------||---------------|----------------|------------------|
|-------------||---------------|----------------|------------------|
|-------------||---------------|----------------|------------------|
|-4--2--0-----||---------------|----------------|------2---1---2---|
|----------4--||-2-------------|----------------|------------------|
|-------------||---------------|-4--------------|------------------|


                   A
  W                 Q   Q   Q   Q     Q   Q   E Q   E   +H       H
|----------------|------0-------0--|--2---0---------0-|-(0)--------------|
|----------------|----------4------|----------3-2-----|------------------|
|----------------|-----------------|------------------|------------------|
|----------------|-----------------|------------------|------------------|
|----------------|-----------------|------------------|------------------|
|----------------|-----------------|------------------|------------------|
|
| Q  E E E E Q      Q   E E E E Q     Q   E E E E Q      Q   E E E E Q
|-0--0-0-0-0-0---|--0---0-0-0-0-0--|--0---0-0-0-0-0---|--0---0-0-0-0-0---|
|-0--0-0-0-0-0---|--2---2-2-2-2-2--|--2---2-2-2-2-2---|--2---2-2-2-2-2---|
|-1--1-1-1-1-1---|--2---2-2-2-2-2--|--2---2-2-2-2-2---|--2---2-2-2-2-2---|
|-0--0-0-0-0-0---|--2---2-2-2-2-2--|--2---2-2-2-2-2---|--2---2-2-2-2-2---|
|-2--2-2-2-2-2---|--0---0-0-0-0-0--|--0---0-0-0-0-0---|--0---0-0-0-0-0---|
|-0--0-0-0-0-0---|-----------------|------------------|------------------|
|
| Q  Q   E Q   E   +W                +W                  Q   Q   Q   Q
|----------------|-----------------|------------------|------------------|
|----------------|-----------------|------------------|------------------|
|----------------|-----------------|------------------|------------------|
|-4--2---1-----2-|-(2)-------------|-(2)--------------|------2---1---2---|
|----------4-----|-----------------|------------------|------------------|
|----------------|-----------------|------------------|------------------|


                  E7
  Gtr II
  Q  E E E E Q    Q  E E E E Q    Q  E E E E Q    Q  E E E E Q
|-0--0-0-0-0-0--|-0--0-0-0-0-0--|-0--0-0-0-0-0--|-0--0-0-0-0-0---|
|-2--2-2-2-2-2--|-0--0-0-0-0-0--|-0--0-0-0-0-0--|-0--0-0-0-0-0---|
|-2--2-2-2-2-2--|-1--1-1-1-1-1--|-1--1-1-1-1-1--|-1--1-1-1-1-1---|
|-2--2-2-2-2-2--|-0--0-0-0-0-0--|-0--0-0-0-0-0--|-0--0-0-0-0-0---|
|-0--0-0-0-0-0--|-2--2-2-2-2-2--|-2--2-2-2-2-2--|-2--2-2-2-2-2---|
|---------------|-0--0-0-0-0-0--|-0--0-0-0-0-0--|-0--0-0-0-0-0---|
|
| Gtr III
| Q  Q   Q   Q    W               W               Q  Q   Q   Q
|---------------|---------------|---------------|----------------|
|---------------|-3-------------|-0-------------|----------------|
|---------------|---------------|---------------|-1--------------|
|-4--2---1---2--|---------------|---------------|----2---1---2---|
|---------------|---------------|---------------|----------------|
|---------------|---------------|---------------|----------------|


                  A
  Q  E E E E Q    E E Q  H       E E Q  H       E E Q  H
|-0--0-0-0-0-0--|-0------------|-0------------|-0-------------|
|-0--0-0-0-0-0--|-2------------|-0------------|-2-------------|
|-1--1-1-1-1-1--|-2------------|-1------------|-2-------------|
|-0--0-0-0-0-0--|-2------------|-0------------|-2-------------|
|-2--2-2-2-2-2--|-0------------|-2------------|-0-------------|
|-0--0-0-0-0-0--|--------------|-0------------|---------------|
|
| Q  Q   Q   Q    E E Q  Q  Q    Q   Q  Q  Q    Q   Q  Q  Q
|---------------|--------------|--------------|---------------|
|---------------|--------------|--------------|---------------|
|---------------|--------------|--------------|-----2--2--1---|
|-0-------------|-----2--1--2--|-0------------|---------------|
|----2----------|-0------------|-----2--------|-0-------------|
|--------4---0--|--------------|--------4--0--|---------------|


                 D
  W              Q  E E E E Q    Q  E E E E Q    Q  E E E E Q
|-------------||-5--5-5-5-5-5--|-5--5-5-5-5-5--|-5--5-5-5-5-5---|
|-------------||-7--7-7-7-7-7--|-7--7-7-7-7-7--|-7--7-7-7-7-7---|
|-------------||-7--7-7-7-7-7--|-7--7-7-7-7-7--|-7--7-7-7-7-7---|
|-------------||-7--7-7-7-7-7--|-7--7-7-7-7-7--|-7--7-7-7-7-7---|
|-------------||-5--5-5-5-5-5--|-5--5-5-5-5-5--|-5--5-5-5-5-5---|
|-------------||---------------|---------------|----------------|
|
| Q  Q  Q  Q     W               W               Q  Q   Q   Q
|-------------||---------------|---------------|----------------|
|-------------||---------------|---------------|----------------|
|-4--2--1-----||-2-------------|---------------|----2---2---1---|
|----------4--||---------------|-4-------------|----------------|
|-------------||---------------|---------------|----------------|
|-------------||---------------|---------------|----------------|


                  C#m                               F#
  Q  E E E E Q    Q  E E E E Q     Q   E E E E Q    Q  E E E E Q
|-5--5-5-5-5-5--|-4--4-4-4-4-4--|--4---4-4-4-4-4--|-2--2-2-2-2-2---|
|-7--7-7-7-7-7--|-5--5-5-5-5-5--|--5---5-5-5-5-5--|-2--2-2-2-2-2---|
|-7--7-7-7-7-7--|-6--6-6-6-6-6--|--6---6-6-6-6-6--|-3--3-3-3-3-3---|
|-7--7-7-7-7-7--|-6--6-6-6-6-6--|--6---6-6-6-6-6--|-4--4-4-4-4-4---|
|-5--5-5-5-5-5--|-4--4-4-4-4-4--|--4---4-4-4-4-4--|-4--4-4-4-4-4---|
|---------------|---------------|-----------------|-2--2-2-2-2-2---|
|
| Q  Q   Q   Q    W               +H       H        H      Q   Q
|---------------|---------------|-----------------|----------------|
|-0-------------|---------------|-----------------|----------------|
|----2---1------|-1-------------|-(1)-------------|----------------|
|------------4--|---------------|----------2------|--------2---2---|
|---------------|---------------|-----------------|-4--------------|
|---------------|---------------|-----------------|----------------|


                  B7
  Q  E E E E Q    Q  E E E E Q    Q  E E E E Q     Q   E E E E Q
|-2--2-2-2-2-2--|-2--2-2-2-2-2--|-2--2-2-2-2-2--|--2---2-2-2-2-2---|
|-2--2-2-2-2-2--|-4--4-4-4-4-4--|-4--4-4-4-4-4--|--4---4-4-4-4-4---|
|-3--3-3-3-3-3--|-2--2-2-2-2-2--|-2--2-2-2-2-2--|--2---2-2-2-2-2---|
|-4--4-4-4-4-4--|-4--4-4-4-4-4--|-4--4-4-4-4-4--|--4---4-4-4-4-4---|
|-4--4-4-4-4-4--|-2--2-2-2-2-2--|-2--2-2-2-2-2--|--2---2-2-2-2-2---|
|-2--2-2-2-2-2--|---------------|---------------|------------------|
|
| Q  Q   Q   Q    W               W               +Q   Q   Q   Q
|---------------|---------------|---------------|------------------|
|---------------|---------------|---------------|------------------|
|---------------|---------------|---------------|------------------|
|-4--2---1------|---------------|-4-------------|-(4)------4---4---|
|------------4--|-2-------------|---------------|------------------|
|---------------|---------------|---------------|------------------|


                  Bm                                E7
  Q  E E E E Q    Q  E E E E Q    Q  E E  E  E Q    E E Q  H
|-2--2-2-2-2-2--|-2--2-2-2-2-2--|-2--2-2--2--2-2--|-0-------------|
|-4--4-4-4-4-4--|-3--3-3-3-3-3--|-3--3-3--3--3-3--|-3-------------|
|-2--2-2-2-2-2--|-4--4-4-4-4-4--|-4--4-4--4--4-4--|-1-------------|
|-4--4-4-4-4-4--|-4--4-4-4-4-4--|-4--4-4--4--4-4--|-2-------------|
|-2--2-2-2-2-2--|-2--2-2-2-2-2--|-2--2-2--2--2-2--|-2-------------|
|---------------|---------------|-----------------|-0-------------|
|
| H      H        H      Q   Q    Q  Q   +H         Q   Q  Q  Q
|---------------|---------------|----2---(2)------|---------------|
|---------------|---------------|-3---------------|---------------|
|-1------2------|-4----------4--|-----------------|-----9--8--9---|
|---------------|---------------|-----------------|---------------|
|---------------|---------------|-----------------|-----7--6--7---|
|---------------|---------------|-----------------|---------------|


                  E7
  Gtr I
   W              Q  Q   Q   Q    Q  Q   E Q   E   +H       H
|--------------||----0-------0--|-2--0-----------|------------------|
|--------------||--------4------|--------3-2---0-|-(0)--------------|
|--------------||---------------|----------------|------------------|
|--------------||---------------|----------------|------------------|
|--------------||---------------|----------------|------------------|
|--------------||---------------|----------------|------------------|
|
| Gtr II
|  W              Q  E E E E Q    Q  E E E E Q      Q   E E E E Q
|--------------||-0--0-0-0-0-0--|-0--0-0-0-0-0---|--0---0-0-0-0-0---|
|--------------||-0--0-0-0-0-0--|-0--0-0-0-0-0---|--0---0-0-0-0-0---|
|--------------||-1--1-1-1-1-1--|-1--1-1-1-1-1---|--1---1-1-1-1-1---|
|--------------||-0--0-0-0-0-0--|-0--0-0-0-0-0---|--0---0-0-0-0-0---|
|--------------||-2--2-2-2-2-2--|-2--2-2-2-2-2---|--2---2-2-2-2-2---|
|--------------||-0--0-0-0-0-0--|-0--0-0-0-0-0---|--0---0-0-0-0-0---|
|
| Gtr III
|  Q  Q  Q  Q     W               W                 Q   Q   Q   Q
|--------------||---------------|----------------|------------------|
|--------------||---------------|----------------|------------------|
|-11--9--7--6--||-4-------------|----------------|------9---8---9---|
|--------------||---------------|-6--------------|------------------|
|--9--7--5--4--||-2-------------|----------------|------7---6---7---|
|--------------||---------------|-4--------------|------------------|


                      A
   W                   Q   Q   Q   Q     Q   Q   E Q   E   +H       H
|-------------------|------0-------0--|--2---0---------0-|-(0)--------------|
|-------------------|----------4------|----------3-2-----|------------------|
|-------------------|-----------------|------------------|------------------|
|-------------------|-----------------|------------------|------------------|
|-------------------|-----------------|------------------|------------------|
|-------------------|-----------------|------------------|------------------|
|
|  Q  E E E E  Q       Q   E E E E Q     Q   E E E E Q      Q   E E E E Q
|--0--0-0-0-0--0----|--0---0-0-0-0-0--|--0---0-0-0-0-0---|--0---0-0-0-0-0---|
|--0--0-0-0-0--0----|--2---2-2-2-2-2--|--2---2-2-2-2-2---|--2---2-2-2-2-2---|
|--1--1-1-1-1--1----|--2---2-2-2-2-2--|--2---2-2-2-2-2---|--2---2-2-2-2-2---|
|--0--0-0-0-0--0----|--2---2-2-2-2-2--|--2---2-2-2-2-2---|--2---2-2-2-2-2---|
|--2--2-2-2-2--2----|--0---0-0-0-0-0--|--0---0-0-0-0-0---|--0---0-0-0-0-0---|
|--0--0-0-0-0--0----|-----------------|------------------|------------------|
|
|  Q  Q   E E +E  E   +W                +W                  Q   Q   Q   Q
|-------------------|-----------------|------------------|------------------|
|-------------------|-----------------|------------------|------------------|
|-11--9---8-6-(6)-9-|-(9)-------------|-(9)--------------|------9---8---9---|
|-------------------|-----------------|------------------|------------------|
|--9--7---6-4-(4)-7-|-(7)-------------|-(7)--------------|------7---6---7---|
|-------------------|-----------------|------------------|------------------|


                   E7
  Gtr II
   Q  E E E E Q     Q  E E E E Q     Q  E E E E Q     Q  E E E E Q
|--0--0-0-0-0-0--|--0--0-0-0-0-0--|--0--0-0-0-0-0--|--0--0-0-0-0-0---|
|--2--2-2-2-2-2--|--0--0-0-0-0-0--|--0--0-0-0-0-0--|--0--0-0-0-0-0---|
|--2--2-2-2-2-2--|--1--1-1-1-1-1--|--1--1-1-1-1-1--|--1--1-1-1-1-1---|
|--2--2-2-2-2-2--|--0--0-0-0-0-0--|--0--0-0-0-0-0--|--0--0-0-0-0-0---|
|--0--0-0-0-0-0--|--2--2-2-2-2-2--|--2--2-2-2-2-2--|--2--2-2-2-2-2---|
|----------------|--0--0-0-0-0-0--|--0--0-0-0-0-0--|--0--0-0-0-0-0---|
|
| Gtr III
|  Q  Q   Q   Q     W                W                Q  Q   Q   Q
|----------------|-10-------------|----------------|-----------------|
|----------------|----------------|-12-------------|-----------------|
|-11--9---8---9--|--7-------------|----------------|-13--9---8---9---|
|----------------|----------------|--9-------------|-----------------|
|--9--7---6---7--|----------------|----------------|-11--7---6---7---|
|----------------|----------------|----------------|-----------------|


                   A              E7             A
   Q  E E E E Q    E E Q  H       E E Q  H        Q    Q   Q  E  E
|--0--0-0-0-0-0--|-0------------|-0------------|--0----0---0-----0--|
|--0--0-0-0-0-0--|-2------------|-0------------|--2----2---2-----2--|
|--1--1-1-1-1-1--|-2------------|-1------------|--2----2---2-----2--|
|--0--0-0-0-0-0--|-2------------|-0------------|--2----2---2-----2--|
|--2--2-2-2-2-2--|-0------------|-2------------|--0----0---0-----0--|
|--0--0-0-0-0-0--|--------------|-0------------|--------------------|
|
|  Q  Q   Q   Q    E E Q  Q  Q    Q   Q  Q  Q     E E  Q   Q  E  E
|----------------|--------------|--------------|--------------------|
|----------------|--------------|--------------|-10---14--14----14--|
|----------------|-2---9--8--9--|-7------------|------14--14----14--|
|-12--9---6---2--|--------------|-----9--6--2--|--7---14--14----14--|
|----------------|-0---7--6--7--|-5------------|--------------------|
|-10--7---4---0--|--------------|-----7--4--0--|--------------------|


                                      G      D       A     E7
  E  E E  E  Q   Q    Q  Q  Q  E E    E  E E E  E  E E E   Q  Q  Q  E E
|----0----0--0---0--|-0--0--0--0-0-||-3--3-3-2--2--2-0---|-0--0--0--0-0--|
|----2----2--2---2--|-2--2--2--2-2-||-3--3-3-3--3--3-2---|-3--3--3--3-3--|
|----2----2--2---2--|-2--2--2--2-2-||-0--0-0-2--2--2-2---|-1--1--1--1-1--|
|----2----2--2---2--|-2--2--2--2-2-||-0--0-0-4--4--4-2---|-2--2--2--2-2--|
|----0----0--0---0--|-0--0--0--0-0-||-0--0-0-5--5--5-0---|-2--2--2--2-2--|
|-------------------|--------------||--------------------|---------------|
|
| E  E E  E  Q   Q    Q  Q  Q  Q      Q.     E +Q    E E   Q  Q  Q  Q
|-------------------|-0--0--0------||-3------2-(2)---0---|-0--0--0-------|
|---14---14-14--14--|-2--2--2------||-3------3-(3)---2---|-3--3--3-------|
|---14---14-14--14--|-2--2--2------||-4------2-(2)---2---|-1--1--1-------|
|---14---14-14--14--|-2--2--2------||-5------4-(4)---2---|-2--2--2-------|
|-------------------|-0--0--0------||-5------5-(5)---0---|-2--2--2-------|
|-------------------|--------------||--------------------|-0--0--0-------|


  G      D       A                    G      D       A     E7
  E  E E E  E  E E E   Q  Q  Q  E E   E  E E E  E  E E E   Q  E E Q  E E
|-3--3-3-2--2--2-0---|-0--0--0--0-0-|-3--3-3-2--2--2-0---|-0--0-0-0--0----|
|-3--3-3-3--3--3-2---|-2--2--2--2-2-|-3--3-3-3--3--3-2---|-3--3-3-3--3----|
|-0--0-0-2--2--2-2---|-2--2--2--2-2-|-0--0-0-2--2--2-2---|-1--1-1-1--1----|
|-0--0-0-4--4--4-2---|-2--2--2--2-2-|-0--0-0-4--4--4-2---|-2--2-2-2--2----|
|-0--0-0-5--5--5-0---|-0--0--0--0-0-|-0--0-0-5--5--5-0---|-2--2-2-2--2----|
|--------------------|--------------|--------------------|----------------|
|
| Q.     E +Q    E E   Q  Q  Q  Q     Q.     E +Q    E E   Q  E E Q  E E
|-3------2-(2)---0---|-0--0--0------|-3------2-(2)---0---|-0--0-0-0--0-0--|
|-3------3-(3)---2---|-2--2--2------|-3------3-(3)---2---|-3--3-3-3--3-3--|
|-4------2-(2)---2---|-2--2--2------|-4------2-(2)---2---|-1--1-1-1--1-1--|
|-5------4-(4)---2---|-2--2--2------|-5------4-(4)---2---|-2--2-2-2--2-2--|
|-5------5-(5)---0---|-0--0--0------|-5------5-(5)---0---|-2--2-2-2--2-2--|
|--------------------|--------------|--------------------|----------------|


  A                              G      D       A     E7
  Q  E E Q  E E   Q  Q  Q  E E   E  E E E  E  E E E   Q  Q  Q  E E
|-5--5-5-5--5-5-|--------------|-3--3-3-2--2--2-0---|-0--0--0--0-0--|
|-5--5-5-5--5-5-|-5--5--5--5-5-|-3--3-3-3--3--3-2---|-3--3--3--3-3--|
|-6--6-6-6--6-6-|-6--6--6--6-6-|-0--0-0-2--2--2-2---|-1--1--1--1-1--|
|-7--7-7-7--7-7-|-7--7--7--7-7-|-0--0-0-4--4--4-2---|-2--2--2--2-2--|
|-7--7-7-7--7-7-|-7--7--7--7-7-|-0--0-0-5--5--5-0---|-2--2--2--2-2--|
|---------------|-5--5--5--5-5-|--------------------|---------------|
|
| Q  Q   H        Q  Q  Q  Q     Q.     E +Q    E E   Q  Q  Q  Q
|-0-------------|-0--0--0------|-3------2-(2)---0---|-0--0--0-------|
|-2-------------|-2--2--2------|-3------3-(3)---2---|-3--3--3-------|
|-2-------------|-2--2--2------|-4------2-(2)---2---|-1--1--1-------|
|-2-------------|-2--2--2------|-5------4-(4)---2---|-2--2--2-------|
|-0-------------|-0--0--0------|-5------5-(5)---0---|-2--2--2-------|
|---------------|--------------|--------------------|-0--0--0-------|


  G      D       A                    G      D       A     E7
  E  E E E  E  E E E   Q  Q  Q  E E   E  E E E  E  E E E   Q  E E Q  E E
|-3--3-3-2--2--2-0---|-0--0--0--0-0-|-3--3-3-2--2--2-0---|-0--0-0-0--0----||
|-3--3-3-3--3--3-2---|-2--2--2--2-2-|-3--3-3-3--3--3-2---|-3--3-3-3--3----||
|-0--0-0-2--2--2-2---|-2--2--2--2-2-|-0--0-0-2--2--2-2---|-1--1-1-1--1----||
|-0--0-0-4--4--4-2---|-2--2--2--2-2-|-0--0-0-4--4--4-2---|-2--2-2-2--2----||
|-0--0-0-5--5--5-0---|-0--0--0--0-0-|-0--0-0-5--5--5-0---|-2--2-2-2--2----||
|--------------------|--------------|--------------------|----------------||
|
| Q.     E +Q    E E   Q  Q  Q  Q     Q.     E +Q    E E   Q  E E Q  E E
|-3------2-(2)---0---|-0--0--0------|-3------2-(2)---0---|-0--0-0-0--0-0--||
|-3------3-(3)---2---|-2--2--2------|-3------3-(3)---2---|-3--3-3-3--3-3--||
|-4------2-(2)---2---|-2--2--2------|-4------2-(2)---2---|-1--1-1-1--1-1--||
|-5------4-(4)---2---|-2--2--2------|-5------4-(4)---2---|-2--2-2-2--2-2--||
|-5------5-(5)---0---|-0--0--0------|-5------5-(5)---0---|-2--2-2-2--2-2--||
|--------------------|--------------|--------------------|----------------||


  A                                            D
  Q   E    E E    E Q       Q     E E E E Q    Q  E E E E Q    Q  E E E E Q
|-0---0----0-0----0-0-----|-0-----0-0-0-0-0--|-5--5-5-5-5-5--|-5--5-5-5-5-5---|
|-2---2----2-2----2-2-----|-2-----2-2-2-2-2--|-7--7-7-7-7-7--|-7--7-7-7-7-7---|
|-2---2----2-2----2-2-----|-2-----2-2-2-2-2--|-7--7-7-7-7-7--|-7--7-7-7-7-7---|
|-2---2----2-2----2-2-----|-2-----2-2-2-2-2--|-7--7-7-7-7-7--|-7--7-7-7-7-7---|
|-0---0----0-0----0-0-----|-0-----0-0-0-0-0--|-5--5-5-5-5-5--|-5--5-5-5-5-5---|
|-------------------------|------------------|---------------|----------------|
|
| E E Q      Q      Q       Q     Q   Q   Q    W               Q  Q   E E Q
|-0---8b10---8b10---8b10--|-8b10--7---5------|-5-------------|----5-----------|
|-2-----------------------|---------------7--|---------------|-6------6-5-----|
|-2-----------------------|------------------|---------------|------------7---|
|-2-----------------------|------------------|---------------|----------------|
|-0-----------------------|------------------|---------------|----------------|
|-------------------------|------------------|---------------|----------------|


   Q   E    E E    E Q       Q     E E E E Q
|--5---5----5-5----5-5-----|-5-----5-5-5-5-5--|
|--7---7----7-7----7-7-----|-7-----7-7-7-7-7--|
|--7---7----7-7----7-7-----|-7-----7-7-7-7-7--|
|--7---7----7-7----7-7-----|-7-----7-7-7-7-7--|
|--5---5----5-5----5-5-----|-5-----5-5-5-5-5--|
|--------------------------|------------------|
|
| +Q   Q      Q      Q       Q     Q   Q   Q
|------8b10---8b10---8b10--|-8b10--7---5------|
|--------------------------|---------------7--|
|-(7)----------------------|------------------|
|--------------------------|------------------|
|--------------------------|------------------|
|--------------------------|------------------|


  C#m
  Q   E E E E Q      Q  E E E E  Q
|-4---4-4-4-4-4----|-4--4-4-4-4--4---|
|-5---5-5-5-5-5----|-5--5-5-5-5--5---|
|-6---6-6-6-6-6----|-6--6-6-6-6--6---|
|-6---6-6-6-6-6----|-6--6-6-6-6--6---|
|-4---4-4-4-4-4----|-4--4-4-4-4--4---|
|------------------|-----------------|
|
| H.          E  E   Q  E E Q    Q
|------------------|-----------------|
|-9-----------9-10-|-9----7----------|
|------------------|----9---9--------|
|------------------|------------11---|
|------------------|-----------------|
|------------------|-----------------|


  F#                               B7
   Q  E E E E Q    Q  E E E E Q    Q  E E E E Q    Q  E E E E Q
|--2--2-2-2-2-2--|-2--2-2-2-2-2--|-2--2-2-2-2-2--|-2--2-2-2-2-2---|
|--2--2-2-2-2-2--|-2--2-2-2-2-2--|-4--4-4-4-4-4--|-4--4-4-4-4-4---|
|--3--3-3-3-3-3--|-3--3-3-3-3-3--|-2--2-2-2-2-2--|-2--2-2-2-2-2---|
|--4--4-4-4-4-4--|-4--4-4-4-4-4--|-4--4-4-4-4-4--|-4--4-4-4-4-4---|
|--4--4-4-4-4-4--|-4--4-4-4-4-4--|-2--2-2-2-2-2--|-2--2-2-2-2-2---|
|--2--2-2-2-2-2--|-2--2-2-2-2-2--|---------------|----------------|
|
|  H      Q   Q    Q  Q   Q   Q    Q  H       Q    Q  Q   H
|----------------|---------------|----7----------|-7--6---5-------|
|----------------|-7--7-------7--|---------------|----------------|
|-------------9--|--------9------|-8-------------|----------------|
|----------------|---------------|------------9--|----------------|
|-11-------------|---------------|---------------|----------------|
|----------------|---------------|---------------|----------------|


                                       Bm
  Q  E E E E Q     Q   E E  E  E Q     Q  E E E E Q     Q   E E  E  E Q
|-2--2-2-2-2-2--|--2---2-2--2--2-2---|-2--2-2-2-2-2---|-2---2-2--2--2-2---|
|-4--4-4-4-4-4--|--4---4-4--4--4-4---|-3--3-3-3-3-3---|-3---3-3--3--3-3---|
|-2--2-2-2-2-2--|--2---2-2--2--2-2---|-4--4-4-4-4-4---|-4---4-4--4--4-4---|
|-4--4-4-4-4-4--|--4---4-4--4--4-4---|-4--4-4-4-4-4---|-4---4-4--4--4-4---|
|-2--2-2-2-2-2--|--2---2-2--2--2-2---|-2--2-2-2-2-2---|-2---2-2--2--2-2---|
|---------------|--------------------|----------------|-------------------|
|
| H      E E Q     E Q   E +Q.     E   Q  E E Q   E E   E Q   E +E  E Q
|--------7-9-7--|--------------------|----------------|-------------------|
|---------------|-10-7---7-(7)-------|-7--7-7---------|-------------------|
|---------------|------------------8-|--------7---7-7-|---------------7---|
|---------------|--------------------|----------------|-9-9---9-(9)-9-----|
|---------------|--------------------|----------------|-------------------|
|---------------|--------------------|----------------|-------------------|


  E7  N.C.                      E7
  Gtr I
  W              W              Q  Q   Q   Q     Q  Q   E Q   E
|--------------|-------------||---------------|------------------|
|--------------|-------------||---------------|------------------|
|--------------|-------------||----9---8---9--|-11--9---7-6---4--|
|--------------|-------------||---------------|------------------|
|--------------|-------------||----7---6---7--|--9--7---5-4---2--|
|--------------|-------------||---------------|------------------|
|
| Gtr II
| E E Q  H       W              Q  E E E E Q     Q  E E E E Q
|-0------------|-------------||-0--0-0-0-0-0--|--0--0-0-0-0-0----|
|-3------------|-------------||-0--0-0-0-0-0--|--0--0-0-0-0-0----|
|-1------------|-------------||-1--1-1-1-1-1--|--1--1-1-1-1-1----|
|-2------------|-------------||-0--0-0-0-0-0--|--0--0-0-0-0-0----|
|-2------------|-------------||-2--2-2-2-2-2--|--2--2-2-2-2-2----|
|-0------------|-------------||-0--0-0-0-0-0--|--0--0-0-0-0-0----|
|
| Gtr III
| Q   Q  Q  Q    Q  Q  Q  Q     W                W
|-----0-----0--|-2--0--------||---------------|------------------|
|--------4-----|-------3--2--||---------------|------------------|
|--------------|-------------||-4-------------|------------------|
|--------------|-------------||---------------|--6---------------|
|--------------|-------------||---------------|------------------|
|--------------|-------------||---------------|------------------|


                                     A
  +H       H        W                 Q   Q   Q   Q     Q   Q   E Q   E
|-----------------|----------------|-----------------|-------------------|
|-----------------|----------------|-----------------|-------------------|
|-(4)-------------|----------------|------9---8---9--|-11---9---7-6---9--|
|-----------------|----------------|-----------------|-------------------|
|-(2)-------------|----------------|------7---6---7--|--9---7---5-4---7--|
|-----------------|----------------|-----------------|-------------------|
|
|  Q   E E E E Q    Q  E E E E Q      Q   E E E E Q     Q   E E E E Q
|--0---0-0-0-0-0--|-0--0-0-0-0-0---|--0---0-0-0-0-0--|--0---0-0-0-0-0----|
|--0---0-0-0-0-0--|-0--0-0-0-0-0---|--2---2-2-2-2-2--|--2---2-2-2-2-2----|
|--1---1-1-1-1-1--|-1--1-1-1-1-1---|--2---2-2-2-2-2--|--2---2-2-2-2-2----|
|--0---0-0-0-0-0--|-0--0-0-0-0-0---|--2---2-2-2-2-2--|--2---2-2-2-2-2----|
|--2---2-2-2-2-2--|-2--2-2-2-2-2---|--0---0-0-0-0-0--|--0---0-0-0-0-0----|
|--0---0-0-0-0-0--|-0--0-0-0-0-0---|-----------------|-------------------|
|
|  Q   Q   Q   Q    Q  Q   E Q   E   +W                +W
|------0-------0--|-2--0---------0-|-(0)-------------|-(0)---------------|
|----------4------|--------4-2-----|-----------------|-------------------|
|-----------------|----------------|-----------------|-------------------|
|-----------------|----------------|-----------------|-------------------|
|-----------------|----------------|-----------------|-------------------|
|-----------------|----------------|-----------------|-------------------|


                                    E7
  +H       H        W                W                W
|-----------------|---------------|----------------|-----------------|
|-----------------|---------------|----------------|-----------------|
|-(9)-------------|---------------|----------------|-----------------|
|-----------------|---------------|----------------|-----------------|
|-(7)-------------|---------------|----------------|-----------------|
|-----------------|---------------|----------------|-----------------|
|
|  Q   E E E E Q    Q  E E E E Q     Q  E E E E Q     Q  E E E E Q
|--0---0-0-0-0-0--|-0--0-0-0-0-0--|--0--0-0-0-0-0--|--0--0-0-0-0-0---|
|--2---2-2-2-2-2--|-2--2-2-2-2-2--|--0--0-0-0-0-0--|--0--0-0-0-0-0---|
|--2---2-2-2-2-2--|-2--2-2-2-2-2--|--1--1-1-1-1-1--|--1--1-1-1-1-1---|
|--2---2-2-2-2-2--|-2--2-2-2-2-2--|--0--0-0-0-0-0--|--0--0-0-0-0-0---|
|--0---0-0-0-0-0--|-0--0-0-0-0-0--|--2--2-2-2-2-2--|--2--2-2-2-2-2---|
|-----------------|---------------|--0--0-0-0-0-0--|--0--0-0-0-0-0---|
|
|  Q   Q   Q   Q    Q  Q   Q   Q     W                W
|------0-------0--|-2--0-------0--|-10-------------|-----------------|
|----------4------|--------4------|----------------|-12--------------|
|-----------------|---------------|--7-------------|-----------------|
|-----------------|---------------|----------------|--9--------------|
|-----------------|---------------|----------------|-----------------|
|-----------------|---------------|----------------|-----------------|


                                   A              E7
  Gtr II
   Q  E E E E Q    Q  E E E E Q    E E Q  H       E E Q  H
|--0--0-0-0-0-0--|-0--0-0-0-0-0--|-0------------|-0-------------|
|--0--0-0-0-0-0--|-0--0-0-0-0-0--|-2------------|-0-------------|
|--1--1-1-1-1-1--|-1--1-1-1-1-1--|-2------------|-1-------------|
|--0--0-0-0-0-0--|-0--0-0-0-0-0--|-2------------|-0-------------|
|--2--2-2-2-2-2--|-2--2-2-2-2-2--|-0------------|-2-------------|
|--0--0-0-0-0-0--|-0--0-0-0-0-0--|--------------|-0-------------|
|
| Gtr III
|  Q  Q   Q   Q    Q  Q   Q   Q    E E Q  Q  Q    Q   Q  Q  Q
|----------------|---------------|--------------|---------------|
|----------------|---------------|--------------|---------------|
|-13--9---8---9--|-7-------------|-----9--8--9--|-7-------------|
|----------------|----9---6---2--|-7------------|-----9--6--2---|
|-11--7---6---7--|-5-------------|-----7--6--7--|-5-------------|
|----------------|----7---4---0--|-5------------|-----7--4--0---|


  A              E7              F           A6
  E E Q  H       E E Q  H         W          W           W
|-0------------|-0------------||-----------|----------|--------*|
|-2------------|-0------------||-----------|----------|--------*|
|-2------------|-1------------||-----------|----------|--------*|
|-2------------|-0------------||-----------|----------|--------*|
|-0------------|-2------------||-----------|----------|--------*|
|--------------|-0------------||-----------|----------|--------*|
|
| E E Q  Q  Q    Q   Q  Q  Q      W          W          +W
|--------------|--------------||-----------|-2--------|-(2)----*|
|--------------|--------------||-----------|-2--------|-(2)----*|
|-2---9--8--9--|-7---4--------||-10--------|-2--------|-(2)----*|
|--------------|--------6--2--||-----------|-2--------|-(2)----*|
|-0---7--6--7--|-5---2--------||--8--------|-0--------|-(0)----*|
|--------------|--------4--0--||-----------|----------|--------*|


Duration Legend
---------------
W - whole; H - half; Q - quarter; E - 8th; S - 16th; T - 32nd; X - 64th; a - acciaccatura
+ - note tied to previous; . - note dotted; .. - note double dotted
Uncapitalized letters represent notes that are staccato (1/2 duration)
Irregular groupings are notated above the duration line
Duration letters will always appear directly above the note/fret number it represents the
duration for.  Duration letters with no fret number below them represent rests.  Multi-
bar rests are notated in the form Wxn, where n is the number of bars to rest for.  Low
melody durations appear below the staff

Tablature Legend
----------------
 h   - hammer-on
 p   - pull-off
 b   - bend
 pb  - pre-bend
 r   - bend release (if no number after the r, then release immediately)
 /\  - slide into or out of (from/to "nowhere")
 s   - legato slide
 S   - shift slide
  - natural harmonic
[n]  - artificial harmonic
n(n) - tapped harmonic
 ~   - vibrato
 tr  - trill
 T   - tap
 TP  - trem. picking
 PM  - palm muting
\n/  - tremolo bar dip; n = amount to dip
 \n  - tremolo bar down
 n/  - tremolo bar up
/n\  - tremolo bar inverted dip
 =   - hold bend; also acts as connecting device for hammers/pulls
 <>  - volume swell (louder/softer)
 x   - on rhythm slash represents muted slash
 o   - on rhythm slash represents single note slash

Misc Legend
-----------
 |  - bar
||  - double bar
||o - repeat start
o|| - repeat end
*|  - double bar (ending)
 :  - bar (freetime)
 $  - Segno
 &  - Coda
Tempo markers -  = BPM(8/16=s8/s16), where s8 = swing 8ths, s16 = swing 16ths
Добавлено: 04.05.2015
Другие материалы по этой песне:

Страница создана 26.04.2012
http://primanota.ru/shadows/national-provincial-samba-chords.htm
Привет, Гость.
Предлагаем пройти революционный курс по гитаре.
Подарок от PrimaNota.Ru, забирай!