PrimaNota.ru - самый крупный в мире бесплатный архив песенных текстов, аккордов, табулатур и нот


Shadows - Third Man - таба, видео

Регистрация Запомнить меня
Войти через:  Facebook Google Twitter Vk Yandex Mail.ru

Shadows - Third Man - таба, видео

Печатать
Просмотров: 94
Уроки эстрадного вокала в Санкт-Петербурге
shadows_third man

Basstab by Jan Bjorklund, Finland  jani_bjorklund@yahoo.se>
You are welcome to request for basstabs!
Fingering and positions as suggested by TablEdit, please use common sense!

TablEdited by Jan Bjorklund
Tuning : E A D G 	Time Signature: 4/4

  |       |       |       |          |       |       |       |         
|----------------------------------|----------------------------------|
|-----------------0-------2--------|-----------------2-------0--------|
|-0-------4------------------------|-0-------4------------------------|
|----------------------------------|----------------------------------|

  |       |       |       |          |       |       |       |         
|----------------------------------|----------------------------------|
|-----------------0-------2--------|-----------------2-------0--------|
|-0-------4------------------------|-0-------4------------------------|
|----------------------------------|----------------------------------|

  |       |       |       |          |       |       |       |         
|----------------------------------|----------------------------------|
|-----------------0-------2--------|-----------------2-------0--------|
|-0-------4------------------------|---------4------------------------|
|----------------------------------|----------------------------------|

  |       |       |       |          |       |       |       |         
|-------------------2---2----------|----------------------------------|
|-------------2-----------4---2----|-------------------2---2----------|
|-0-----0-4------------------------|-------------2-----------4---2----|
|----------------------------------|-0-----0-4------------------------|

  |       |       |       |          |       |       |       |         
|----------------------------------|-------------------2---2----------|
|-------------------2---2----------|-------------2-----------4---2----|
|-------------2-----------4---2----|-0-----0-4------------------------|
|-0-----0-4------------------------|----------------------------------|

  |       |       |       |          |       |       |       |         
|-------------------2---2----------|----------------------------------|
|-------------2-----------4---2----|-------------------2---2----------|
|-0-----0-4------------------------|-------------2-----------4---2----|
|----------------------------------|-0-----0-4------------------------|

  |       |       |       |          |       |       |       |         
|----------------------------------|----------------------------------|
|-------------------2---2----------|----------------------------------|
|-------------2-----------4---2----|-0--------------------------------|
|-0-----0-4------------------------|----------------------------------|

  |       |       |       |          |       |       |       |         
|-------------------2---2----------|----------------------------------|
|-------------2-----------4---2----|-------------------2---2----------|
|-0-----0-4------------------------|-------------2-----------4---2----|
|----------------------------------|-0-----0-4------------------------|

  |       |       |       |          |       |       |       |         
|----------------------------------|----------------------------------|
|-------------------2---2----------|-------------2--------------------|
|-------------2-----------4---2----|-0-----0-4---------0---0----------|
|-0-----0-4------------------------|-------------------------4---3----|

  |       |       |       |          |       |       |       |         
|----------------------------------|----------------------------------|
|-------------------4---4----------|-----------------0-------1--------|
|---------1---4-----------4---1----|-2-------4------------------------|
|-2-----2--------------------------|----------------------------------|

  |       |       |       |          |       |       |       |         
|----------------------------------|----------------------------------|
|-------------------2---0----------|----------------------------------|
|-------------2-----------4---2----|-0--------------------------------|
|-0-----0-4------------------------|-------------------------------0--|

  |       |       |       |          |       |       |       |         
|-------------------2---2----------|-------------------2---2----------|
|-------------2-----------4---2----|-------------2-----------4---2----|
|-0-----0-4------------------------|-0-----0-4------------------------|
|----------------------------------|----------------------------------|

  |       |       |       |          |       |       |       |         
|-------------------2---2----------|----------------------------------|
|-------------2-----------4---2----|---------------------4---2--------|
|-0-----0-4------------------------|-------------2--------------------|
|----------------------------------|-0-----0-4------------------------|

  |       |       |       |          |       |       |       |         
|----------------------------------|----------------------------------|
|-------------------2---2----------|-------------------2---2----------|
|-------------2-----------4---2----|-------------2-----------4---2----|
|-0-----0-4------------------------|-0-----0-4------------------------|

  |       |       |       |          |       |       |       |         
|----------------------------------|----------------------------------|
|-------------------2---0----------|----------------------------------|
|-------------2-----------4---2----|-0--------------------------------|
|-0-----0-4------------------------|----------------------------------|

  |       |       |       |          |       |       |       |         
|-------------------2---2----------|----------------------------------|
|-------------2-----------4---2----|-------------2-----2---2----------|
|-0-----0-4------------------------|-0-----0-4---------------4---2----|
|----------------------------------|----------------------------------|

  |       |       |       |          |       |       |       |         
|----------------------------------|----------------------------------|
|-------------------2---2----------|----------------------------------|
|-------------2-----------4---2----|-------------2---0----------------|
|-0-----0-4------------------------|-0-----0-4------------------------|

  |       |       |       |          |       |       |       |         
|-------------------2---2-----2----|----------------------------------|
|-------------2-----------4---2----|-------------2--------------------|
|-0-----0-4------------------------|-0-----0-4-------------------2----|
|----------------------------------|-------------------0---0-4--------|

  |       |       |       |          |       |       |       |         
|----------------------------------|----------------------------------|
|-------------------2---2----------|-----------------------------2----|
|-------------2-----------4---2----|-------------2-----0---0-4--------|
|-0-----0-4------------------------|-0-----0-4------------------------|

  |       |       |       |          |       |       |       |         
|----------------------------------|----------------------------------|
|-----------------0-------2--------|-----------------2-------0--------|
|-0-------4------------------------|-0-------4------------------------|
|----------------------------------|----------------------------------|

  |       |       |       |          |       |       |       |         
|----------------------------------|----------------------------------|
|-----------------0-------2--------|-----------------2-------0--------|
|-0-------4------------------------|-0-------4------------------------|
|----------------------------------|----------------------------------|

  |       |       |       |          |       |       |       |         
|-------------------2---2----------|----------------------------------|
|-------------2-----------4---2----|-------------------2---2----------|
|-0-----0-4------------------------|-------------2-----------4---2----|
|----------------------------------|-0-----0-4------------------------|

  |       |       |       |          |       |       |       |         
|----------------------------------|-------------------2---2----------|
|-------------------2---2----------|-------------2-----------4---2----|
|-------------2-----------4---2----|-0-----0-4------------------------|
|-0-----0-4------------------------|----------------------------------|

  |       |       |       |          |       |       |       |         
|-------------------2---2----------|----------------------------------|
|-------------2-----------4---2----|-------------------2---2----------|
|-0-----0-4------------------------|-------------2-----------4---2----|
|----------------------------------|-0-----0-4------------------------|

  |       |       |       |          |       |       |       |         
|----------------------------------|----------------------------------|
|-------------------2---2----------|-------------2--------------------|
|-------------2-----------4---2----|-0-----0-4---------0---0----------|
|-0-----0-4------------------------|-------------------------4---3----|

  |       |       |       |          |       |       |       |         
|----------------------------------|----------------------------------|
|-------------------4---4----------|-----------------0-------1--------|
|---------1---4-----------4---1----|-2-------4------------------------|
|-2-----2--------------------------|----------------------------------|

  |       |       |       |          |       |       |       |         
|----------------------------------|----------------------------------|
|-------------------2---0----------|-----------------0-------2--------|
|-------------2-----------4---2----|-0-------4------------------------|
|-0-----0-4------------------------|----------------------------------|

  |       |       |       |          |       |       |       |         
|----------------------------------|----------------------------------|
|-----------------2-------0--------|-----------------0-------2--------|
|-0-------4------------------------|-0-------4------------------------|
|----------------------------------|----------------------------------|

  |       |       |       |          |       |       |       |         
|----------------------------------|----------------------------------|
|-----------------2-------0--------|-----------------0-------2--------|
|-0-------4------------------------|-0-------4------------------------|
|----------------------------------|----------------------------------|

  |       |       |       |          |       |       |       |         
|----------------------------------|----------------------------------|
|-----------------2-------0--------|-----------------0-------2--------|
|-0-------4------------------------|-0-------4------------------------|
|----------------------------------|----------------------------------|

  |       |       |       |          |       |       |       |         
|----------------------------------|----------------------------------|
|-----------------2-------0--------|-----------------0-------2--------|
|-0-------4------------------------|-0-------4------------------------|
|----------------------------------|----------------------------------|

  |       |       |       |          |       |       |       |         
|----------------------------------|----------------------------------|
|-----------------2-------0--------|-----------------0-------2--------|
|-0-------4------------------------|-0-------4------------------------|
|----------------------------------|----------------------------------|

  |       |       |       |          |       |       |       |         
|----------------------------------|----------------------------------|
|-----------------2-------0--------|-----------------0-------2--------|
|-0-------4------------------------|-0-------4------------------------|
|----------------------------------|----------------------------------|

  |       |       |       |                 
|----------------------------------|
|----------------------------------|
|-0--------------------------------|
|----------------------------------|


Created with TablEdit http://www.tabledit.com/

     
Добавлено: 09.09.2013
Другие материалы по этой песне:
  • Аккорды и текст

Страница создана 06.08.2013
http://primanota.ru/shadows/third-man-chords.htm
Привет, Гость.
Предлагаем пройти революционный курс по гитаре.
Подарок от PrimaNota.Ru, забирай!