PrimaNota.ru - самый крупный в мире бесплатный архив песенных текстов, аккордов, табулатур и нот


Shadows - Zambesi - таба, видео

Регистрация Запомнить меня
Войти через:  Facebook Google Twitter Vk Yandex Mail.ru

Shadows - Zambesi - таба, видео

Печатать
Просмотров: 76
shadows_zambesi

Basstab by Jan Bjorklund, Finland  jani_bjorklund@yahoo.se>
You are welcome to request for basstabs!
Fingering and positions as suggested by TablEdit, please use common sense!

TablEdited by Jan Bjorklund
Tuning : E A D G 	Time Signature: 4/4

  |       |       |       |          |       |       |       |         
|----------------------------------|-------------0-------0---3--------|
|-------------0-----------3--------|-1--------------------------------|
|-1--------------------------------|----------------------------------|
|----------------------------------|----------------------------------|

  |       |       |       |          |       |       |       |         
|-------------2-------2---5--------|----------------------------------|
|-3--------------------------------|-3--------------------------------|
|----------------------------------|----------------------------------|
|----------------------------------|----------------------------------|

  |       |       |       |          |       |       |       |         
||---------------------------------|----------------------------------|
|*------------1-------1------------|-------------3--------------------|
|*1---------------------------3----|-1-----------------------1---2----|
||---------------------------------|----------------------------------|

  |       |       |       |        >1|       |       |       |         
|---------------------------------||---------------------------------||
|-------------3-------3-----------||---------------------------------*|
|-3-------------------------------||-1-------------------------------*|
|-------------------------1-------||-------------------------1-------||

>2|       |       |       |          |       |       |       |         
|----------------------------------|----------------------------------|
|-------------3--------------------|-------------3--------------------|
|-1---------------------------0----|-1---------------------------0----|
|---------------------1---3--------|---------------------1---3--------|

  |       |       |       |        >3|       |       |       |         
||---------------------------------|---------------------------------||
|*---------------------------------|-0-----------1-------1-----------*|
|*1---------------------------0----|-----------------------------3---*|
||---------------------------------|---------------------------------||

  |       |       |       |          |       |       |       |         
|----------------------------------|---------------------------------||
|-3-----------3-----------0--------|-------------3-------------------*|
|-----------------------------3----|-1---------------------------0---*|
|----------------------------------|---------------------1---3-------||

  |       |       |       |          |       |       |       |         
|----------------------------------|-------------3-------0------------|
|-----------------0----------------|-3-----------------------3--------|
|-1--------------------------------|----------------------------------|
|----------------------------------|----------------------------------|

  |       |       |       |          |       |       |       |         
|----------------------------------|-----------------3----------------|
|-1--------------------------------|-1-----------1-----------1--------|
|-----------------1----------------|----------------------------------|
|----------------------------------|----------------------------------|

  |       |       |       |          |       |       |       |         
|-----------------5----------------|-----------------5----------------|
|-3--------------------------------|-3-----------3--------------------|
|----------------------------------|-------------------------3--------|
|----------------------------------|----------------------------------|

  |       |       |       |          |       |       |       |         
|----------------------------------|----------------------------------|
|-----------------3----------------|-----------------3----------------|
|-1--------------------------------|-1--------------------------------|
|-------------------------1--------|-------------------------1--------|

  |       |       |       |          |       |       |       |         
|----------------------------------|-------------3-------0------------|
|-----------------0----------------|-3-----------------------3--------|
|-1--------------------------------|----------------------------------|
|----------------------------------|----------------------------------|

  |       |       |       |          |       |       |       |         
|----------------------------------|-----------------3----------------|
|-1--------------------------------|-1-----------1--------------------|
|-----------------1----------------|-------------------------1--------|
|----------------------------------|----------------------------------|

  |       |       |       |          |       |       |       |         
|----------------------------------|----------------------------------|
|-3-------3-------3-------3---3----|-----3-------3---3---3---3--------|
|----------------------------------|----------------------------------|
|----------------------------------|----------------------------------|

  |       |       |       |          |       |       |       |         
|-------------------------0---2----|-3---------------------------3----|
|-3-------3-------3---3------------|---------------------0---3--------|
|----------------------------------|----------------------------------|
|----------------------------------|----------------------------------|

  |       |       |       |          |       |       |       |         
||7-------3---5-------3---2---0----|---------3-----------------------||
|*---------------------------------|-3-----------0-------0---1---2---||
|*---------------------------------|---------------------------------||
||---------------------------------|---------------------------------||

>1|       |       |       |          |       |       |       |         
|----------------------------------|-----------------------------3---||
|-3---2---1---0--------------------|-0-------------------0---3-------*|
|-----------------3---1---3---4----|---------------------------------*|
|----------------------------------|---------------------------------||

>2|       |       |       |          |       |       |       |         
|----------------------------------|----------------------------------|
|-3---2---1---0--------------------|----------------------------------|
|-----------------3---1---0---3----|----------------------------------|
|----------------------------------|----------------------------------|

  |       |       |       |          |       |       |       |         
|-3--------------------------------|----------------------------------|
|----------------------------------|-------------3--------------------|
|----------------------------------|-1---------------------------0----|
|----------------------------------|---------------------1---3--------|

  |       |       |       |          |       |       |       |         
|----------------------------------|----------------------------------|
|-------------3--------------------|-3---3---2---3---1----------------|
|-1---------------------------0----|---------------------3---0--------|
|---------------------1---3--------|-----------------------------1----|

  |       |       |       |          |       |       |       |         
|----------------------------------|----------------------------------|
|-3---3---2---3---1----------------|----------------------------------|
|---------------------3---0--------|-1--------------------------------|
|-----------------------------1----|----------------------------------|

  |       |       |       |                  
|----------------------------------|
|----------------------------------|
|---------1------------------------|
|----------------------------------|




Created with TablEdit http://www.tabledit.com/
     
Добавлено: 26.11.2013
Другие материалы по этой песне:
  • Аккорды и текст

Страница создана 26.11.2013
http://primanota.ru/shadows/zambesi-chords.htm
Привет, Гость.
Предлагаем пройти революционный курс по гитаре.
Подарок от PrimaNota.Ru, забирай!