PrimaNota.ru - самый крупный в мире бесплатный архив песенных текстов, аккордов, табулатур и нот


Shadows - Tequila - таба, видео

Регистрация Запомнить меня
Войти через:  Facebook Google Twitter Vk Yandex Mail.ru

Shadows - Tequila - таба, видео

Печатать
Просмотров: 241
SONG:    Tequila
ARTIST:  The Shadows (covered by The Ventures)
YEAR:    1963
TAB:     Nic McMillan and Tony Burcul
E-MAIL:  nicmc@mbox.com.au
^^^^^^^^^^^^^^^^^^^^^^^^^^^^^^^^^^^^^^^^^^^^^^
This is the only transcription for the classic Mexican
tune, "Tequila", on the net.
I have searched for hours trying to find it without any
luck. G here is my tab for it.
Rhythm Guitar plays in the background continuously until
the bridge, where it stops. The strumming pattern will
take some time to learn. The Lead Guitar has some quick
and tricky parts which may need practice.


Rhythm Guitar
^^^^^^^^^^^^
    A     G     A     G          A     G     A  G
E/----------------------------|------------------------------\
B|--5--5--3-----5--5--3--3-3--|--5--5--3-----5--3--3-3-3--3--|
G|--6--6--4-----6--6--4--4-4--|--6--6--4-----6--4--4-4-4--4--|
D|--7--7--5-----7--7--5--5-5--|--7--7--5-----7--5--5-5-5--5--|
A|----------------------------|------------------------------|
E\----------------------------|------------------------------/

Lead Guitar
^^^^^^^^^^^
E/---------------------|---------------------\
B|---------------------|---------------------|
G|-----2--2--4--0-2----|----2---2--4-2p0-----|
D|---2--------------2--|--2---2----------2---|
A|---------------------|---------------------|
E\---------------------|---------------------/

E/-------------------------------------------\
B|-------------------------------------------|
G|-----2--4--0-2--2-4-2p0---0h2--2-4-2-0-----|
D|------------------------2--------------2---|
A|--(0)--------------------------------------|
E\-------------------------------------------/
(stop note from ringing)

E/-------------------------------------------\
B|------------5-3-5-3-2-3-2-0-2-0------------|
G|--/6--6--6----------------------2p0-2p0----|
D|----------------------------------------2--|
A|-------------------------------------------|
E\-------------------------------------------/

E/----5---5----------------------------------\
B|------5---5-3-5-3-2-3-2p0-2p0--------------|
G|------------------------------2p0-2--------|
D|------------------------------------2------|
A|-------------------------------------------|
E\-------------------------------------------/

E/-----5--5--7----5----------5---5--7p5------\
B|--5-----------8-----5----5---5--------8-5--|
G|-------------------------------------------|
D|-------------------------------------------|
A|-------------------------------------------|
E\-------------------------------------------/

E/-5--5--7----5--5--7p5-------5---5-7-5------\
B|----------8-----------8-5-8---8-------8-5--|
G|-------------------------------------------|
D|-------------------------------------------|
A|-------------------------------------------|
E\-------------------------------------------/


BRIDGE
^^^^^^
          Cdim    A
E/-------|--8-----5----17\---\
B|--5h7--|--7-----5----14\---|
G|-------|--8-----6----------| Repeat 3x
D|-------|--7-----7----------| 
A|-------|-------------------|
E\-------|-------------------/

      B7               E
E/----7-7-7-7--7--7----12----\
B|----7-7-7-7--7--7----9-----|
G|----8-8-8-8--8--8----9-----| TEQUILA!
D|----7-7-7-7--7--7----9-----|
A|---------------------------| repeat from
E\---------------------------/ beginning

     
Добавлено: 16.10.2013
Другие материалы по этой песне:
  • Аккорды и текст

Страница создана 16.10.2013
http://primanota.ru/shadows/tequila-chords.htm
Привет, Гость.
Предлагаем пройти революционный курс по гитаре.
Подарок от PrimaNota.Ru, забирай!