PrimaNota.ru - самый крупный в мире бесплатный архив песенных текстов, аккордов, табулатур и нот


Senses Fail - Still Searching - таба, бас-таба, видео

Регистрация Запомнить меня
Войти через:  Facebook Google Twitter Vk Yandex Mail.ru

Senses Fail - Still Searching - таба, бас-таба, видео

Печатать
Просмотров: 105
 Still Searching                                 


                                                                     
Senses Fail
Guitar Left



                      ^  v  ^  v  ^  v  ^  v  ^  v  ^  v  ^  v  ^  v  
                      S  S  S  S  S  S  S  S  S  S  S  S  S  S  S  S  
E||-------|-------|--------------------------------------------------|
B||-------|-------|--------------------------------------------------|
G||-------|-------|--14-14-14-14-14-14-14-14-14-14-14-14-14-14-14-14-|
D||-------|-------|--------------------------------------------------|
A||-------|-------|--12-12-12-12-12-12-12-12-12-12-12-12-12-12-12-12-|
D||-------|-------|--------------------------------------------------|


   ^  v  ^  v  ^  v  ^  v  ^  v  ^  v  ^  v  ^  v  
   S  S  S  S  S  S  S  S  S  S  S  S  S  S  S  S  
--------------------------------------------------|
--------------------------------------------------|
--14-14-14-14-14-14-14-14-14-14-14-14-14-14-14-14-|
--------------------------------------------------|
--12-12-12-12-12-12-12-12-12-12-12-12-12-12-12-12-|
--------------------------------------------------|


   ^  v  ^  v  ^  v  ^  v  ^  v  ^  v  ^  v  ^  v  
   S  S  S  S  S  S  S  S  S  S  S  S  S  S  S  S  
--------------------------------------------------|
--------------------------------------------------|
--14-14-14-14-14-14-14-14-18-18-18-18-18-18-18-18-|
--------------------------------------------------|
--12-12-12-12-12-12-12-12-16-16-16-16-16-16-16-16-|
--------------------------------------------------|


   ^  v  ^  v  ^  v  ^  v  ^  v  ^  v  ^  v  ^  v  
   S  S  S  S  S  S  S  S  S  S  S  S  S  S  S  S  
--------------------------------------------------|
--------------------------------------------------|
--19-19-19-19-19-19-19-19-16-16-16-16-16-16-16-16-|
--------------------------------------------------|
--17-17-17-17-17-17-17-17-14-14-14-14-14-14-14-14-|
--------------------------------------------------|


   ^  v  ^  v  ^  v  ^  v  ^  v  ^  v  ^  v  ^  v  
   S  S  S  S  S  S  S  S  S  S  S  S  S  S  S  S  
--------------------------------------------------|
--------------------------------------------------|
--14-14-14-14-14-14-14-14-18-18-18-18-18-18-18-18-|
--------------------------------------------------|
--12-12-12-12-12-12-12-12-16-16-16-16-16-16-16-16-|
--------------------------------------------------|


   ^  v  ^  v  ^  v  ^  v  ^  v  ^  v  ^  v  ^  v  
   S  S  S  S  S  S  S  S  S  S  S  S  S  S  S  S  
--------------------------------------------------|
--------------------------------------------------|
--19-19-19-19-19-19-19-19-22-22-22-22-22-22-22-22-|
--------------------------------------------------|
--17-17-17-17-17-17-17-17-20-20-20-20-20-20-20-20-|
--------------------------------------------------|


   ^  v  ^  v  ^  v  ^  v  ^  v  ^  v  ^  v  ^  v  
   S  S  S  S  S  S  S  S  S  S  S  S  S  S  S  S  
--------------------------------------------------|
--------------------------------------------------|
--14-14-14-14-14-14-14-14-18-18-18-18-18-18-18-18-|
--------------------------------------------------|
--12-12-12-12-12-12-12-12-16-16-16-16-16-16-16-16-|
--------------------------------------------------|


   ^  v  ^  v  ^  v  ^  v  ^  v  ^  v  ^  v  ^  v  
   S  S  S  S  S  S  S  S  S  S  S  S  S  S  S  S  
--------------------------------------------------|
--------------------------------------------------|
--19-19-19-19-19-19-19-19-16-16-16-16-16-16-16-16-|
--------------------------------------------------|
--17-17-17-17-17-17-17-17-14-14-14-14-14-14-14-14-|
--------------------------------------------------|


   ^  v  ^  v  ^  v  ^  v  ^  v  ^  v  ^  v  ^  v  
   S  S  S  S  S  S  S  S  S  S  S  S  S  S  S  S  
--------------------------------------------------|
--------------------------------------------------|
--14-14-14-14-14-14-14-14-18-18-18-18-18-18-18-18-|
--------------------------------------------------|
--12-12-12-12-12-12-12-12-16-16-16-16-16-16-16-16-|
--------------------------------------------------|


   ^  v  ^  v  ^  v  ^  v  ^  v  ^  v  ^  v  ^  v  
   S  S  S  S  S  S  S  S  S  S  S  S  S  S  S  S  
--------------------------------------------------|
--------------------------------------------------|
--19-19-19-19-19-19-19-19-16-16-16-16-16-16-16-16-|
--------------------------------------------------|
--17-17-17-17-17-17-17-17-14-14-14-14-14-14-14-14-|
--------------------------------------------------|


  T T T S E  S. E  E  E  T T T E  T    T T T T S E.  E  E  E  T T T E  
T  
------------------------------------|------------------------------------|
------------------------------------|------------------------------------|
------------------------------------|------------------------------------|
--4-4-4-4-------4-----4--4-4-4-4----|--4-4-4-4-L-----4-----4--2-2-2-2----|
--4-4-4-4-------4-----4--4-4-4-4----|--4-4-4-4-L-----4-----4--2-2-2-2----|
------------------------------------|------------------------------------|


  T T T T S E.  E  E  E  T T T E  T    T T T T S E.  E  E  E  T T T E  
T  
------------------------------------|------------------------------------|
------------------------------------|------------------------------------|
------------------------------------|------------------------------------|
--0-0-0-0-L-----0-----0--0-0-0-0----|--0-0-0-0-L-----0-----0--2-2-2-2----|
--0-0-0-0-L-----0-----0--0-0-0-0----|--0-0-0-0-L-----0-----0--2-2-2-2----|
------------------------------------|------------------------------------|


  T T T S S. E  E  E  E  T T T E  T    T T T S S. E  E  E  E  T T T E  
T  
------------------------------------|------------------------------------|
------------------------------------|------------------------------------|
-------------6----------------------|-------------4----------------------|
--4-4-4-4-------4-----4--4-4-4-4----|--4-4-4-4-------4-----4--2-2-2-2----|
--4-4-4-4-------------4--4-4-4-4----|--4-4-4-4-------------4--2-2-2-2----|
------------------------------------|------------------------------------|


  T T T S S. E  E  E  E  T T T E  T    T T T S S. E  E  E  E  T T T E  
T  
------------------------------------|------------------------------------|
------------------------------------|------------------------------------|
-------------2----------------------|-------------2----------------------|
--0-0-0-0-------0-----0--0-0-0-0----|--0-0-0-0-------0-----0--2-2-2-2----|
--0-0-0-0-------------0--0-0-0-0----|--0-0-0-0-------------0--2-2-2-2----|
------------------------------------|------------------------------------|


   E  E   E  Q     Q.          E   E   E  Q     E  E  E   
------9------7-------------|------10------9--------7--9--|
--10-----10-------10~------|--10------10-------10--------|
---------------------------|-----------------------------|
---------------------------|-----------------------------|
---------------------------|-----------------------------|
---------------------------|-----------------------------|


   E  E   E  Q     Q.         Q.       E  H            E  Q    Q    E  
E  E   
------9------7-------------|--7~--------------------|------------------------|
--10-----10-------10~------|----------10--9~--------|--7--7----7----7--9--9--|
---------------------------|------------------------|--6--6----6----6--9--9--|
---------------------------|------------------------|--4--4----4----4--6--6--|
---------------------------|------------------------|------------------------|
---------------------------|------------------------|------------------------|


   E   Q     Q     E   E   E     E  Q    Q    E  E  E   
------------------------------|------------------------|
--10--10----10----10--10--10--|--5--5----5----5--5--5--|
---9---9-----9-----9---9---9--|--4--4----4----4--4--4--|
---7---7-----7-----7---7---7--|--2--2----2----2--2--2--|
------------------------------|------------------------|
------------------------------|------------------------|


  E  Q    E  E  Q    E     E  Q    Q    E  E  E   
------------------------|------------------------|
--3--3----3--6--6----6--|--7--7----7----7--9--9--|
--2--2----2--5--5----5--|--6--6----6----6--9--9--|
--0--0----0--3--3----3--|--4--4----4----4--6--6--|
------------------------|------------------------|
------------------------|------------------------|


   E   Q     Q     E   E   E     E  Q    Q    E  E  E   
------------------------------|------------------------|
--10--10----10----10--10--10--|--5--5----5----5--5--5--|
---9---9-----9-----9---9---9--|--4--4----4----4--4--4--|
---7---7-----7-----7---7---7--|--2--2----2----2--2--2--|
------------------------------|------------------------|
------------------------------|------------------------|


  E  Q    E  E  E  E  E     S S S S S S S S S S S S S S S S  
-------------------------|----------------------------------|
--3--3----3--6--6--6--6--|--7-7-7---7-7-7---7-7-7---7-7-7---|
--2--2----2--5--5--5--5--|--6-6-6---6-6-6---6-6-6---6-6-6---|
--0--0----0--3--3--3--3--|--4-4-4---4-4-4---4-4-4---4-4-4---|
-------------------------|----------------------------------|
-------------------------|----------------------------------|


  S S S S S S S S H           T T T S E  S. E  E  E  T T T E  T  
---------------------------|------------------------------------|
--7-7-7---7-7-7---3--------|------------------------------------|
--6-6-6---6-6-6---2--------|------------------------------------|
--4-4-4---4-4-4---0--------|--4-4-4-4-------4-----4--4-4-4-4----|
---------------------------|--4-4-4-4-------4-----4--4-4-4-4----|
---------------------------|------------------------------------|


  T T T T S E.  E  E  E  T T T E  T    T T T T S E.  E  E  E  T T T E  
T  
------------------------------------|------------------------------------|
------------------------------------|------------------------------------|
------------------------------------|------------------------------------|
--4-4-4-4-L-----4-----4--2-2-2-2----|--0-0-0-0-L-----0-----0--0-0-0-0----|
--4-4-4-4-L-----4-----4--2-2-2-2----|--0-0-0-0-L-----0-----0--0-0-0-0----|
------------------------------------|------------------------------------|


  T T T T S E.  E  E  E  T T T E  T    T T T S S. E  E  E  E  T T T E  
T  
------------------------------------|------------------------------------|
------------------------------------|------------------------------------|
------------------------------------|-------------6----------------------|
--0-0-0-0-L-----0-----0--2-2-2-2----|--4-4-4-4-------4-----4--4-4-4-4----|
--0-0-0-0-L-----0-----0--2-2-2-2----|--4-4-4-4-------------4--4-4-4-4----|
------------------------------------|------------------------------------|


  T T T S S. E  E  E  E  T T T E  T    T T T S S. E  E  E  E  T T T E  
T  
------------------------------------|------------------------------------|
------------------------------------|------------------------------------|
-------------4----------------------|-------------2----------------------|
--4-4-4-4-------4-----4--2-2-2-2----|--0-0-0-0-------0-----0--0-0-0-0----|
--4-4-4-4-------------4--2-2-2-2----|--0-0-0-0-------------0--0-0-0-0----|
------------------------------------|------------------------------------|


  T T T S S. E  E  E  E  T T T E  T     E  E   E  Q     Q.       
------------------------------------|------9------7-------------|
------------------------------------|--10-----10-------10~------|
-------------2----------------------|---------------------------|
--0-0-0-0-------0-----0--2-2-2-2----|---------------------------|
--0-0-0-0-------------0--2-2-2-2----|---------------------------|
------------------------------------|---------------------------|


   E   E   E  Q     E  E  E      E  E   E  Q     Q.       
------10------9--------7--9--|------9------7-------------|
--10------10-------10--------|--10-----10-------10~------|
-----------------------------|---------------------------|
-----------------------------|---------------------------|
-----------------------------|---------------------------|
-----------------------------|---------------------------|


  Q.       E  H            E  Q    Q    E  E  E   
--7~--------------------|------------------------|
----------10--9~--------|--7--7----7----7--9--9--|
------------------------|--6--6----6----6--9--9--|
------------------------|--4--4----4----4--6--6--|
------------------------|------------------------|
------------------------|------------------------|


   E   Q     Q     E   E   E     E  Q    Q    E  E  E   
------------------------------|------------------------|
--10--10----10----10--10--10--|--5--5----5----5--5--5--|
---9---9-----9-----9---9---9--|--4--4----4----4--4--4--|
---7---7-----7-----7---7---7--|--2--2----2----2--2--2--|
------------------------------|------------------------|
------------------------------|------------------------|


  E  Q    E  E  Q    E     E  Q    Q    E  E  E   
------------------------|------------------------|
--3--3----3--6--6----6--|--7--7----7----7--9--9--|
--2--2----2--5--5----5--|--6--6----6----6--9--9--|
--0--0----0--3--3----3--|--4--4----4----4--6--6--|
------------------------|------------------------|
------------------------|------------------------|


   E   Q     Q     E   E   E     E  Q    Q    E  E  E   
------------------------------|------------------------|
--10--10----10----10--10--10--|--5--5----5----5--5--5--|
---9---9-----9-----9---9---9--|--4--4----4----4--4--4--|
---7---7-----7-----7---7---7--|--2--2----2----2--2--2--|
------------------------------|------------------------|
------------------------------|------------------------|


  E  Q    E  S S S S S S S S     E.   S  E  E    Q     Q     
-----------------------------|------------------------------|
--3--3----3--9-9-9-9-9-9-9-9-|--10---10-10--9s--12----10----|
--2--2----2------------------|------------------------------|
--0--0----0------------------|------------------------------|
-----------------------------|------------------------------|
-----------------------------|------------------------------|


   E.   S  E  E    Q     Q        E.   S  E   E    Q     Q     
------------------------------|-------------------------------|
--10---10-10--9s--12----14----|--14---14-14--12s--15----14----|
------------------------------|-------------------------------|
------------------------------|-------------------------------|
------------------------------|-------------------------------|
------------------------------|-------------------------------|


   E.   S  E   E  S S S S S S S S     E.   S  E  E    Q     Q     
----------------------------------|------------------------------|
--12---12-12--10--9-9-9-9-9-9-9-9-|--10---10-10--9s--12----10----|
----------------------------------|------------------------------|
----------------------------------|------------------------------|
----------------------------------|------------------------------|
----------------------------------|------------------------------|


   E.   S  E  E    Q     Q        E.   S  E   E    Q     Q     
------------------------------|-------------------------------|
--10---10-10--9s--12----14----|--14---14-14--12s--15----14----|
------------------------------|-------------------------------|
------------------------------|-------------------------------|
------------------------------|-------------------------------|
------------------------------|-------------------------------|


   E.   S  E   E  S S S S S S S S  
----------------------------------|
--12---12-12--10--9-9-9-9-9-9-9-9-|
----------------------------------|
----------------------------------|
----------------------------------|
----------------------------------|


   S  S  S S  S  S  S S  S  S  S S  S  S  S S  
----------------------------------------------|
--10-10-10---10-10-10---10-10-10---10-10-10---|
----------------------------------------------|
----------------------------------------------|
----------------------------------------------|
----------------------------------------------|


   S  S  S S  S  S  S S  S  S  S S  S  S  S S  
----------------------------------------------|
--10-10-10---10-10-10---10-10-10---10-10-10---|
----------------------------------------------|
----------------------------------------------|
----------------------------------------------|
----------------------------------------------|


   S  S  S S  S  S  S S  S  S  S S  S  S  S S  
----------------------------------------------|
--10-10-10---10-10-10---10-10-10---10-10-10---|
----------------------------------------------|
----------------------------------------------|
----------------------------------------------|
----------------------------------------------|


   S  S  S S  S  S  S S S. S. S S. S. S    Q    Q    Q    Q     
----------------------------------------|----------------------|
--10-10-10---10-10-10-------------------|-------5----3---------|
----------------------------------------|-----------------2----|
----------------------------------------|----------------------|
----------------------------------------|----------------------|
------------------------7--6--4-6--4--2-|--0-------------------|


  W                                 
-------------------|-------|-------|
-------------------|-------|-------|
--L----------------|-------|-------|
-------------------|-------|-------|
-------------------|-------|-------|
-------------------|-------|-------|


   ^  v  ^  v  ^  v  ^  v  ^  v  ^  v  ^  v  ^  v  
   S  S  S  S  S  S  S  S  S  S  S  S  S  S  S  S  
--------------------------------------------------|
--------------------------------------------------|
--14-14-14-14-14-14-14-14-14-14-14-14-14-14-14-14-|
--------------------------------------------------|
--12-12-12-12-12-12-12-12-12-12-12-12-12-12-12-12-|
--------------------------------------------------|


   ^  v  ^  v  ^  v  ^  v  ^  v  ^  v  ^  v  ^  v  
   S  S  S  S  S  S  S  S  S  S  S  S  S  S  S  S  
--------------------------------------------------|
--------------------------------------------------|
--14-14-14-14-14-14-14-14-14-14-14-14-14-14-14-14-|
--------------------------------------------------|
--12-12-12-12-12-12-12-12-12-12-12-12-12-12-12-12-|
--------------------------------------------------|


   ^  v  ^  v  ^  v  ^  v  ^  v  ^  v  ^  v  ^  v  
   S  S  S  S  S  S  S  S  S  S  S  S  S  S  S  S  
--------------------------------------------------|
--------------------------------------------------|
--14-14-14-14-14-14-14-14-18-18-18-18-18-18-18-18-|
--------------------------------------------------|
--12-12-12-12-12-12-12-12-16-16-16-16-16-16-16-16-|
--------------------------------------------------|


   ^  v  ^  v  ^  v  ^  v  ^  v  ^  v  ^  v  ^  v  
   S  S  S  S  S  S  S  S  S  S  S  S  S  S  S  S  
--------------------------------------------------|
--------------------------------------------------|
--19-19-19-19-19-19-19-19-16-16-16-16-16-16-16-16-|
--------------------------------------------------|
--17-17-17-17-17-17-17-17-14-14-14-14-14-14-14-14-|
--------------------------------------------------|


   ^  v  ^  v  ^  v  ^  v  ^  v  ^  v  ^  v  ^  v  
   S  S  S  S  S  S  S  S  S  S  S  S  S  S  S  S  
--------------------------------------------------|
--------------------------------------------------|
--14-14-14-14-14-14-14-14-18-18-18-18-18-18-18-18-|
--------------------------------------------------|
--12-12-12-12-12-12-12-12-16-16-16-16-16-16-16-16-|
--------------------------------------------------|


   ^  v  ^  v  ^  v  ^  v  ^  v  ^  v  ^  v  ^  v  
   S  S  S  S  S  S  S  S  S  S  S  S  S  S  S  S  
--------------------------------------------------|
--------------------------------------------------|
--19-19-19-19-19-19-19-19-22-22-22-22-22-22-22-22-|
--------------------------------------------------|
--17-17-17-17-17-17-17-17-20-20-20-20-20-20-20-20-|
--------------------------------------------------|


   ^  v  ^  v  ^  v  ^  v  ^  v  ^  v  ^  v  ^  v  
   S  S  S  S  S  S  S  S  S  S  S  S  S  S  S  S  
--------------------------------------------------|
--------------------------------------------------|
--11-11-11-11-11-11-11-11-11-11-11-11-11-11-11-11-|
--------------------------------------------------|
---9--9--9--9--9--9--9--9--9--9--9--9--9--9--9--9-|
--------------------------------------------------|


   ^  v  ^  v  ^  v  ^  v  ^  v  ^  v  ^  v  ^  v  
   S  S  S  S  S  S  S  S  S  S  S  S  S  S  S  S  
--------------------------------------------------|
--------------------------------------------------|
--11-11-11-11-11-11-11-11-14-14-14-14-16-16-16-16-|
--------------------------------------------------|
---9--9--9--9--9--9--9--9-12-12-12-12-14-14-14-14-|
--------------------------------------------------|


   ^  v  ^  v  ^  v  ^  v  ^  v  ^  v  ^  v  ^  v  
   S  S  S  S  S  S  S  S  S  S  S  S  S  S  S  S  
--------------------------------------------------|
--------------------------------------------------|
--10-10-10-10-10-10-10-10-10-10-10-10-10-10-10-10-|
--------------------------------------------------|
---8--8--8--8--8--8--8--8--8--8--8--8--8--8--8--8-|
--------------------------------------------------|


   ^  v  ^  v  ^  v  ^  v     v  ^  v     v  ^  v  
   S  S  S  S  S  S  S  S  S  S  S  S  S  S  S  S  
--------------------------------------------------|
--------------------------------------------------|
--10-10-10-10-10-10-10-10-13-13-13-13-11-11-11-11-|
--------------------------------------------------|
---8--8--8--8--8--8--8--8-11-11-11-11--9--9--9--9-|
--------------------------------------------------|


  ^ v ^ v ^ v ^ v   v ^ v   v ^ v    ^ v ^ v ^ v ^ v     v  ^  v     v  
^  v  
  S S S S S S S S S S S S S S S S    S S S S S S S S  S  S  S  S  S  S  
S  S  
----------------------------------|------------------------------------------|
----------------------------------|------------------------------------------|
--9-9-9-9-9-9-9-9-9-9-9-9-9-9-9-9-|--9-9-9-9-9-9-9-9-13-13-13-13-11-11-11-11-|
----------------------------------|------------------------------------------|
--7-7-7-7-7-7-7-7-7-7-7-7-7-7-7-7-|--7-7-7-7-7-7-7-7-11-11-11-11--9--9--9--9-|
----------------------------------|------------------------------------------|


  ^ v ^ v ^ v ^ v     v  ^  v     v  ^  v  
  S S S S S S S S  S  S  S  S  S  S  S  S  
------------------------------------------|
------------------------------------------|
--8-8-8-8-8-8-8-8-11-11-11-11-11-11-11-11-|
------------------------------------------|
--6-6-6-6-6-6-6-6--9--9--9--9--9--9--9--9-|
------------------------------------------|


  ^ v ^ v ^ v ^ v     v  ^  v     v  ^  v  
  S S S S S S S S  S  S  S  S  S  S  S  S  
------------------------------------------|
------------------------------------------|
--8-8-8-8-8-8-8-8-10-10-10-10-10-10-10-10-|
------------------------------------------|
--6-6-6-6-6-6-6-6--8--8--8--8--8--8--8--8-|
------------------------------------------|


   ^  v  ^  v  ^  v  ^  v  ^  v  ^  v  ^  v  ^  v  
   S  S  S  S  S  S  S  S  S  S  S  S  S  S  S  S  
--------------------------------------------------|
--------------------------------------------------|
--11-11-11-11-11-11-11-11-11-11-11-11-11-11-11-11-|
--------------------------------------------------|
---9--9--9--9--9--9--9--9--9--9--9--9--9--9--9--9-|
--------------------------------------------------|


   ^  v  ^  v  ^  v  ^  v  ^  v  ^  v  ^  v  ^  v  
   S  S  S  S  S  S  S  S  S  S  S  S  S  S  S  S  
--------------------------------------------------|
--------------------------------------------------|
--11-11-11-11-11-11-11-11-14-14-14-14-16-16-16-16-|
--------------------------------------------------|
---9--9--9--9--9--9--9--9-12-12-12-12-14-14-14-14-|
--------------------------------------------------|


   ^  v  ^  v  ^  v  ^  v  ^  v  ^  v  ^  v  ^  v  
   S  S  S  S  S  S  S  S  S  S  S  S  S  S  S  S  
--------------------------------------------------|
--------------------------------------------------|
--10-10-10-10-10-10-10-10-10-10-10-10-10-10-10-10-|
--------------------------------------------------|
---8--8--8--8--8--8--8--8--8--8--8--8--8--8--8--8-|
--------------------------------------------------|


   ^  v  ^  v  ^  v  ^  v     v  ^  v     v  ^  v  
   S  S  S  S  S  S  S  S  S  S  S  S  S  S  S  S  
--------------------------------------------------|
--------------------------------------------------|
--10-10-10-10-10-10-10-10-13-13-13-13-11-11-11-11-|
--------------------------------------------------|
---8--8--8--8--8--8--8--8-11-11-11-11--9--9--9--9-|
--------------------------------------------------|


  ^ v ^ v ^ v ^ v   v ^ v   v ^ v    ^ v ^ v ^ v ^ v     v  ^  v     v  
^  v  
  S S S S S S S S S S S S S S S S    S S S S S S S S  S  S  S  S  S  S  
S  S  
----------------------------------|------------------------------------------|
----------------------------------|------------------------------------------|
--9-9-9-9-9-9-9-9-9-9-9-9-9-9-9-9-|--9-9-9-9-9-9-9-9-13-13-13-13-11-11-11-11-|
----------------------------------|------------------------------------------|
--7-7-7-7-7-7-7-7-7-7-7-7-7-7-7-7-|--7-7-7-7-7-7-7-7-11-11-11-11--9--9--9--9-|
----------------------------------|------------------------------------------|


  ^ v ^ v ^ v ^ v     v  ^  v     v  ^  v  
  S S S S S S S S  S  S  S  S  S  S  S  S  
------------------------------------------|
------------------------------------------|
--8-8-8-8-8-8-8-8-11-11-11-11-11-11-11-11-|
------------------------------------------|
--6-6-6-6-6-6-6-6--9--9--9--9--9--9--9--9-|
------------------------------------------|


  ^ v ^ v ^ v ^ v     v  ^  v     v  ^  v                                     
  S S S S S S S S  S  S  S  S  S  S  S  S    S S S S S S S S S S S S S 
S S S  
------------------------------------------|----------------------------------|
------------------------------------------|----------------------------------|
--8-8-8-8-8-8-8-8-10-10-10-10-10-10-10-10-|--6-6---6-6---6-6---6-6---6-6---6-|
------------------------------------------|----------------------------------|
--6-6-6-6-6-6-6-6--8--8--8--8--8--8--8--8-|--4-4---4-4---4-4---4-4---4-4---4-|
------------------------------------------|----------------------------------|


  S S S S S S S S Q    Q       S S S S S S S S S S S S S S S S  
----------------------------|----------------------------------|
----------------------------|----------------------------------|
--6---6-6---6-6---6----9----|--7-7---7-7---7-7---7-7---7-7---7-|
----------------------------|----------------------------------|
--4---4-4---4-4---4----7----|--5-5---5-5---5-5---5-5---5-5---5-|
----------------------------|----------------------------------|


  S S S S S S S S Q    Q       S S S S S S S S S S S S S S S S  
----------------------------|----------------------------------|
----------------------------|----------------------------------|
--7---7-7---7-7---6----7----|--6-6---6-6---6-6---6-6---6-6---6-|
----------------------------|----------------------------------|
--5---5-5---5-5---4----5----|--4-4---4-4---4-4---4-4---4-4---4-|
----------------------------|----------------------------------|


  S S S S S S S S Q    Q       S S S S S S S S S S S S S S S S  
----------------------------|----------------------------------|
----------------------------|----------------------------------|
--6---6-6---6-6---6----9----|--7-7---7-7---7-7---7-7---7-7---7-|
----------------------------|----------------------------------|
--4---4-4---4-4---4----7----|--5-5---5-5---5-5---5-5---5-5---5-|
----------------------------|----------------------------------|


                                ^  v  ^  v  ^  v  ^  v  ^  v  ^  v  ^  
v  ^  v  
  S S S S S S S S Q    Q        S  S  S  S  S  S  S  S  S  S  S  S  S  
S  S  S  
----------------------------|--------------------------------------------------|
----------------------------|--------------------------------------------------|
--7---7-7---7-7---6----4----|--14-14-14-14-14-14-13-13-16-16-16-16-14-14-14-14-|
----------------------------|--------------------------------------------------|
--5---5-5---5-5---4----2----|--12-12-12-12-12-12-11-11-14-14-14-14-12-12-12-12-|
----------------------------|--------------------------------------------------|


   ^  v  ^  v  ^  v  ^  v  ^  v  ^  v  ^  v  ^  v  
   S  S  S  S  S  S  S  S  S  S  S  S  S  S  S  S  
--------------------------------------------------|
--------------------------------------------------|
--14-14-14-14-14-14-13-13-16-16-16-16-18-18-18-18-|
--------------------------------------------------|
--12-12-12-12-12-12-11-11-14-14-14-14-16-16-16-16-|
--------------------------------------------------|


   ^  v  ^  v  ^  v  ^  v  ^  v  ^  v  ^  v  ^  v  
   S  S  S  S  S  S  S  S  S  S  S  S  S  S  S  S  
--------------------------------------------------|
--------------------------------------------------|
--18-18-18-18-18-18-16-16-19-19-19-19-18-18-18-18-|
--------------------------------------------------|
--16-16-16-16-16-16-14-14-17-17-17-17-16-16-16-16-|
--------------------------------------------------|


   ^  v  ^  v  ^  v  ^  v  ^  v  ^  v  ^  v  ^  v  
   S  S  S  S  S  S  S  S  S  S  S  S  S  S  S  S  
--------------------------------------------------|
--------------------------------------------------|
--16-16-16-16-16-16-16-16-14-14-14-14-13-13-13-13-|
--------------------------------------------------|
--14-14-14-14-14-14-14-14-12-12-12-12-11-11-11-11-|
--------------------------------------------------|


   ^  v  ^  v  ^  v  ^  v  ^  v  ^  v  ^  v  ^  v  
   S  S  S  S  S  S  S  S  S  S  S  S  S  S  S  S  
--------------------------------------------------|
--------------------------------------------------|
--14-14-14-14-14-14-13-13-16-16-16-16-14-14-14-14-|
--------------------------------------------------|
--12-12-12-12-12-12-11-11-14-14-14-14-12-12-12-12-|
--------------------------------------------------|


   ^  v  ^  v  ^  v  ^  v  ^  v  ^  v  ^  v  ^  v  
   S  S  S  S  S  S  S  S  S  S  S  S  S  S  S  S  
--------------------------------------------------|
--------------------------------------------------|
--14-14-14-14-14-14-13-13-16-16-16-16-18-18-18-18-|
--------------------------------------------------|
--12-12-12-12-12-12-11-11-14-14-14-14-16-16-16-16-|
--------------------------------------------------|


   ^  v  ^  v  ^  v  ^  v  ^  v  ^  v  ^  v  ^  v  
   S  S  S  S  S  S  S  S  S  S  S  S  S  S  S  S  
--------------------------------------------------|
--------------------------------------------------|
--18-18-18-18-18-18-16-16-19-19-19-19-18-18-18-18-|
--------------------------------------------------|
--16-16-16-16-16-16-14-14-17-17-17-17-16-16-16-16-|
--------------------------------------------------|


   ^  v  ^  v  ^  v  ^  v  ^  v  ^  v  ^  v  ^  v  
   S  S  S  S  S  S  S  S  S  S  S  S  S  S  S  S  
--------------------------------------------------|
--------------------------------------------------|
--14-14-14-14-16-16-16-16-18-18-18-18-13-13-13-13-|
--------------------------------------------------|
--12-12-12-12-14-14-14-14-16-16-16-16-11-11-11-11-|
--------------------------------------------------|


   ^  v  ^  v  ^  v  ^  v  ^  v  ^  v  ^  v  ^  v  
   S  S  S  S  S  S  S  S  S  S  S  S  S  S  S  S  
--------------------------------------------------|
--------------------------------------------------|
--14-14-14-14-14-14-14-14-14-14-14-14-14-14-14-14-|
--------------------------------------------------|
--12-12-12-12-12-12-12-12-12-12-12-12-12-12-12-12-|
--------------------------------------------------|


   ^  v  ^  v  ^  v  ^  v  ^  v  ^  v  ^  v  ^  v  
   S  S  S  S  S  S  S  S  S  S  S  S  S  S  S  S  
--------------------------------------------------|
--------------------------------------------------|
--18-18-18-18-18-18-18-18-19-19-19-19-19-19-19-19-|
--------------------------------------------------|
--16-16-16-16-16-16-16-16-17-17-17-17-17-17-17-17-|
--------------------------------------------------|


   ^  v  ^  v  ^  v  ^  v  ^  v  ^  v  ^  v  ^  v  
   S  S  S  S  S  S  S  S  S  S  S  S  S  S  S  S  
--------------------------------------------------|
--------------------------------------------------|
--13-13-13-13-13-13-13-13-13-13-13-13-13-13-13-13-|
--------------------------------------------------|
--11-11-11-11-11-11-11-11-11-11-11-11-11-11-11-11-|
--------------------------------------------------|


   ^  v  ^  v  ^  v  ^  v     v  ^  v     v  ^  v  
   S  S  S  S  S  S  S  S  S  S  S  S  S  S  S  S  
--------------------------------------------------|
--------------------------------------------------|
--18-18-18-18-18-18-18-18-16-16-16-16-16-16-16-16-|
--------------------------------------------------|
--16-16-16-16-16-16-16-16-14-14-14-14-14-14-14-14-|
--------------------------------------------------|


   ^  v  ^  v  ^  v  ^  v  ^  v  ^  v  ^  v  ^  v  
   S  S  S  S  S  S  S  S  S  S  S  S  S  S  S  S  
--------------------------------------------------|
--------------------------------------------------|
--13-13-13-13-13-13-13-13-13-13-13-13-13-13-13-13-|
--------------------------------------------------|
--11-11-11-11-11-11-11-11-11-11-11-11-11-11-11-11-|
--------------------------------------------------|


   ^  v  ^  v  ^  v  ^  v  ^  v  ^  v  ^  v  ^  v  
   S  S  S  S  S  S  S  S  S  S  S  S  S  S  S  S  
--------------------------------------------------|
--------------------------------------------------|
--16-16-16-16-16-16-16-16-14-14-14-14-14-14-14-14-|
--------------------------------------------------|
--14-14-14-14-14-14-14-14-12-12-12-12-12-12-12-12-|
--------------------------------------------------|


   ^  v  ^  v  ^  v  ^  v  ^  v  ^  v  ^  v  ^  v  
   S  S  S  S  S  S  S  S  S  S  S  S  S  S  S  S  
--------------------------------------------------|
--------------------------------------------------|
--11-11-11-11-11-11-11-11-14-14-14-14-14-14-14-14-|
--------------------------------------------------|
---9--9--9--9--9--9--9--9-12-12-12-12-12-12-12-12-|
--------------------------------------------------|


   ^  v  ^  v  ^  v  ^  v  ^  v  ^  v  ^  v  ^  v  
   S  S  S  S  S  S  S  S  S  S  S  S  S  S  S  S  
--------------------------------------------------|
--------------------------------------------------|
--11-11-11-11-11-11-11-11-13-13-13-13-13-13-13-13-|
--------------------------------------------------|
---9--9--9--9--9--9--9--9-11-11-11-11-11-11-11-11-|
--------------------------------------------------|


   ^  v  ^  v  ^  v  ^  v  ^  v  ^  v  ^  v  ^  v  
   S  S  S  S  S  S  S  S  S  S  S  S  S  S  S  S  
--------------------------------------------------|
--------------------------------------------------|
--14-14-14-14-14-14-14-14-14-14-14-14-14-14-14-14-|
--------------------------------------------------|
--12-12-12-12-12-12-12-12-12-12-12-12-12-12-12-12-|
--------------------------------------------------|


   ^  v  ^  v  ^  v  ^  v  ^  v  ^  v  ^  v  ^  v  
   S  S  S  S  S  S  S  S  S  S  S  S  S  S  S  S  
--------------------------------------------------|
--------------------------------------------------|
--18-18-18-18-18-18-18-18-19-19-19-19-19-19-19-19-|
--------------------------------------------------|
--16-16-16-16-16-16-16-16-17-17-17-17-17-17-17-17-|
--------------------------------------------------|


   ^  v  ^  v  ^  v  ^  v  ^  v  ^  v  ^  v  ^  v  
   S  S  S  S  S  S  S  S  S  S  S  S  S  S  S  S  
--------------------------------------------------|
--------------------------------------------------|
--13-13-13-13-13-13-13-13-13-13-13-13-13-13-13-13-|
--------------------------------------------------|
--11-11-11-11-11-11-11-11-11-11-11-11-11-11-11-11-|
--------------------------------------------------|


   ^  v  ^  v  ^  v  ^  v     v  ^  v     v  ^  v  
   S  S  S  S  S  S  S  S  S  S  S  S  S  S  S  S  
--------------------------------------------------|
--------------------------------------------------|
--18-18-18-18-18-18-18-18-16-16-16-16-16-16-16-16-|
--------------------------------------------------|
--16-16-16-16-16-16-16-16-14-14-14-14-14-14-14-14-|
--------------------------------------------------|


   ^  v  ^  v  ^  v  ^  v  ^  v  ^  v  ^  v  ^  v  
   S  S  S  S  S  S  S  S  S  S  S  S  S  S  S  S  
--------------------------------------------------|
--------------------------------------------------|
--13-13-13-13-13-13-13-13-13-13-13-13-13-13-13-13-|

















Plain Text Attachment [ Scan and Save to Computer | Save to Yahoo! Briefcase ] 

                                Still Searching                                 


                                                                     
Senses Fail
Guitar Right



      ^  v  ^  v  ^  v  ^  v  ^  v  ^  v  ^  v  ^  v  
      S  S  S  S  S  S  S  S  S  S  S  S  S  S  S  S  
E||--------------------------------------------------|
B||--------------------------------------------------|
G||--11-11-11-11-11-11-11-11-11-11-11-11-11-11-11-11-|
D||--------------------------------------------------|
A||---9--9--9--9--9--9--9--9--9--9--9--9--9--9--9--9-|
D||--------------------------------------------------|


   ^  v  ^  v  ^  v  ^  v  ^  v  ^  v  ^  v  ^  v  
   S  S  S  S  S  S  S  S  S  S  S  S  S  S  S  S  
--------------------------------------------------|
--------------------------------------------------|
--11-11-11-11-11-11-11-11-11-11-11-11-11-11-11-11-|
--------------------------------------------------|
---9--9--9--9--9--9--9--9--9--9--9--9--9--9--9--9-|
--------------------------------------------------|


   ^  v  ^  v  ^  v  ^  v  ^  v  ^  v  ^  v  ^  v  
   S  S  S  S  S  S  S  S  S  S  S  S  S  S  S  S  
--------------------------------------------------|
--------------------------------------------------|
--11-11-11-11-11-11-11-11-11-11-11-11-11-11-11-11-|
--------------------------------------------------|
---9--9--9--9--9--9--9--9--9--9--9--9--9--9--9--9-|
--------------------------------------------------|


   ^  v  ^  v  ^  v  ^  v  ^  v  ^  v  ^  v  ^  v  
   S  S  S  S  S  S  S  S  S  S  S  S  S  S  S  S  
--------------------------------------------------|
--------------------------------------------------|
--11-11-11-11-11-11-11-11-11-11-11-11-11-11-11-11-|
--------------------------------------------------|
---9--9--9--9--9--9--9--9--9--9--9--9--9--9--9--9-|
--------------------------------------------------|


   ^  v  ^  v  ^  v  ^  v  ^  v  ^  v  ^  v  ^  v  
   S  S  S  S  S  S  S  S  S  S  S  S  S  S  S  S  
--------------------------------------------------|
--------------------------------------------------|
--11-11-11-11-11-11-11-11-14-14-14-14-14-14-14-14-|
--------------------------------------------------|
---9--9--9--9--9--9--9--9-12-12-12-12-12-12-12-12-|
--------------------------------------------------|


   ^  v  ^  v  ^  v  ^  v  ^  v  ^  v  ^  v  ^  v  
   S  S  S  S  S  S  S  S  S  S  S  S  S  S  S  S  
--------------------------------------------------|
--------------------------------------------------|
--16-16-16-16-16-16-16-16-13-13-13-13-13-13-13-13-|
--------------------------------------------------|
--14-14-14-14-14-14-14-14-11-11-11-11-11-11-11-11-|
--------------------------------------------------|


   ^  v  ^  v  ^  v  ^  v  ^  v  ^  v  ^  v  ^  v  
   S  S  S  S  S  S  S  S  S  S  S  S  S  S  S  S  
--------------------------------------------------|
--------------------------------------------------|
--11-11-11-11-11-11-11-11-14-14-14-14-14-14-14-14-|
--------------------------------------------------|
---9--9--9--9--9--9--9--9-12-12-12-12-12-12-12-12-|
--------------------------------------------------|


   ^  v  ^  v  ^  v  ^  v  ^  v  ^  v  ^  v  ^  v  
   S  S  S  S  S  S  S  S  S  S  S  S  S  S  S  S  
--------------------------------------------------|
--------------------------------------------------|
--16-16-16-16-16-16-16-16-18-18-18-18-18-18-18-18-|
--------------------------------------------------|
--14-14-14-14-14-14-14-14-16-16-16-16-16-16-16-16-|
--------------------------------------------------|


   ^  v  ^  v  ^  v  ^  v  ^  v  ^  v  ^  v  ^  v  
   S  S  S  S  S  S  S  S  S  S  S  S  S  S  S  S  
--------------------------------------------------|
--------------------------------------------------|
--11-11-11-11-11-11-11-11-14-14-14-14-14-14-14-14-|
--------------------------------------------------|
---9--9--9--9--9--9--9--9-12-12-12-12-12-12-12-12-|
--------------------------------------------------|


   ^  v  ^  v  ^  v  ^  v  ^  v  ^  v  ^  v  ^  v  
   S  S  S  S  S  S  S  S  S  S  S  S  S  S  S  S  
--------------------------------------------------|
--------------------------------------------------|
--16-16-16-16-16-16-16-16-13-13-13-13-13-13-13-13-|
--------------------------------------------------|
--14-14-14-14-14-14-14-14-11-11-11-11-11-11-11-11-|
--------------------------------------------------|


   ^  v  ^  v  ^  v  ^  v  ^  v  ^  v  ^  v  ^  v  
   S  S  S  S  S  S  S  S  S  S  S  S  S  S  S  S  
--------------------------------------------------|
--------------------------------------------------|
--11-11-11-11-11-11-11-11-14-14-14-14-14-14-14-14-|
--------------------------------------------------|
---9--9--9--9--9--9--9--9-12-12-12-12-12-12-12-12-|
--------------------------------------------------|


   ^  v  ^  v  ^  v  ^  v  ^  v  ^  v  ^  v  ^  v  
   S  S  S  S  S  S  S  S  S  S  S  S  S  S  S  S  
--------------------------------------------------|
--------------------------------------------------|
--16-16-16-16-16-16-16-16-13-13-13-13-13-13-13-13-|
--------------------------------------------------|
--14-14-14-14-14-14-14-14-11-11-11-11-11-11-11-11-|
--------------------------------------------------|


  T T T S E  S. E  E  E  T T T E  T    T T T T S E.  E  E  E  T T T E  
T  
------------------------------------|------------------------------------|
------------------------------------|------------------------------------|
------------------------------------|------------------------------------|
--4-4-4-4-------4-----4--4-4-4-4----|--4-4-4-4-L-----4-----4--2-2-2-2----|
--4-4-4-4-------4-----4--4-4-4-4----|--4-4-4-4-L-----4-----4--2-2-2-2----|
------------------------------------|------------------------------------|


  T T T T S E.  E  E  E  T T T E  T    T T T T S E.  E  E  E  T T T E  
T  
------------------------------------|------------------------------------|
------------------------------------|------------------------------------|
------------------------------------|------------------------------------|
--0-0-0-0-L-----0-----0--0-0-0-0----|--0-0-0-0-L-----0-----0--2-2-2-2----|
--0-0-0-0-L-----0-----0--0-0-0-0----|--0-0-0-0-L-----0-----0--2-2-2-2----|
------------------------------------|------------------------------------|


  T T T S S. E  E  E  E  T T T E  T    T T T S S. E  E  E  E  T T T E  
T  
------------------------------------|------------------------------------|
------------------------------------|------------------------------------|
-------------2----------------------|-------------1----------------------|
--4-4-4-4-------4-----4--4-4-4-4----|--4-4-4-4-------4-----4--2-2-2-2----|
--4-4-4-4-------------4--4-4-4-4----|--4-4-4-4-------------4--2-2-2-2----|
------------------------------------|------------------------------------|


  T T T S S. E  E  E  E  T T T E  T    T T T S S. E  E  E  E  T T T E  
T  
------------------------------------|------------------------------------|
------------------------------------|------------------------------------|
------------------------------------|------------------------------------|
--0-0-0-0----4--0-----0--0-0-0-0----|--0-0-0-0----2--0-----0--2-2-2-2----|
--0-0-0-0-------------0--0-0-0-0----|--0-0-0-0-------------0--2-2-2-2----|
------------------------------------|------------------------------------|


  W                   H        H           Q    E  Q    Q.      
-------------------|--------------------|-------0-------L------|
--3----------------|--5--------7--------|--3-------3----L------|
--2----------------|--4--------6--------|--2------------2------|
--0----------------|--2--------4--------|--0-------------------|
--0----------------|--2--------4--------|--0-------------------|
-------------------|--------------------|----------------------|


  H        H            E   E   E   Q     E   E   E   
--------------------|--------------------------------|
--5--------6--------|------14------------------------|
--4--------6--------|--11------13--14----11--13--11--|
--2--------3--------|--------------------------------|
--2--------4--------|--------------------------------|
--------------------|--------------------------------|


  E   E   E   Q     E   Q        E   E   E   Q     E   E   E   
---------12--14----12--------|--------------------------------|
-----------------------14----|------14------------------------|
--L--11----------------------|--11------13--14----11--13--11--|
-----------------------------|--------------------------------|
-----------------------------|--------------------------------|
-----------------------------|--------------------------------|


  E   E   E   Q     E   E   E      E   E   E   Q     E   E   E   
-------------12----------------|--------------------------------|
-----14--15--------15--14------|------14------------------------|
--L------------------------14--|--11------13--14----11--13--11--|
-------------------------------|--------------------------------|
-------------------------------|--------------------------------|
-------------------------------|--------------------------------|


  E   E   E   Q     E   Q        E   E   E   Q.      E   E   
-----------------------------|--12--14--12------------------|
---------10--12----10--------|--------------14------12--14--|
--L--11----------------13----|------------------------------|
-----------------------------|------------------------------|
-----------------------------|------------------------------|
-----------------------------|------------------------------|


   E   Q.      E   E   E   E      W                             
------------------------------|--------------------|-----------|
--12--------------------------|--------------------|-----------|
------14------13--14--13------|--11----------------|-----------|
--------------------------14--|--------------------|-----------|
------------------------------|--------------------|-----------|
------------------------------|--------------------|-----------|


  T T T S E  S. E  E  E  T T T E  T    T T T T S E.  E  E  E  T T T E  
T  
------------------------------------|------------------------------------|
------------------------------------|------------------------------------|
------------------------------------|------------------------------------|
--4-4-4-4-------4-----4--4-4-4-4----|--4-4-4-4-L-----4-----4--2-2-2-2----|
--4-4-4-4-------4-----4--4-4-4-4----|--4-4-4-4-L-----4-----4--2-2-2-2----|
------------------------------------|------------------------------------|


  T T T T S E.  E  E  E  T T T E  T    T T T T S E.  E  E  E  T T T E  
T  
------------------------------------|------------------------------------|
------------------------------------|------------------------------------|
------------------------------------|------------------------------------|
--0-0-0-0-L-----0-----0--0-0-0-0----|--0-0-0-0-L-----0-----0--2-2-2-2----|
--0-0-0-0-L-----0-----0--0-0-0-0----|--0-0-0-0-L-----0-----0--2-2-2-2----|
------------------------------------|------------------------------------|


  T T T S S. E  E  E  E  T T T E  T    T T T S S. E  E  E  E  T T T E  
T  
------------------------------------|------------------------------------|
------------------------------------|------------------------------------|
-------------2----------------------|-------------1----------------------|
--4-4-4-4-------4-----4--4-4-4-4----|--4-4-4-4-------4-----4--2-2-2-2----|
--4-4-4-4-------------4--4-4-4-4----|--4-4-4-4-------------4--2-2-2-2----|
------------------------------------|------------------------------------|


  T T T S S. E  E  E  E  T T T E  T    T T T S S. E  E  E  E  T T T E  
T  
------------------------------------|------------------------------------|
------------------------------------|------------------------------------|
------------------------------------|------------------------------------|
--0-0-0-0----4--0-----0--0-0-0-0----|--0-0-0-0----2--0-----0--2-2-2-2----|
--0-0-0-0-------------0--0-0-0-0----|--0-0-0-0-------------0--2-2-2-2----|
------------------------------------|------------------------------------|


  W                   H        H           Q    E  Q    Q.      
-------------------|--------------------|-------0-------L------|
--3----------------|--5--------7--------|--3-------3----L------|
--2----------------|--4--------6--------|--2------------2------|
--0----------------|--2--------4--------|--0-------------------|
--0----------------|--2--------4--------|--0-------------------|
-------------------|--------------------|----------------------|


  H        H            E   E   E   Q     E   E   E   
--------------------|--------------------------------|
--5--------6--------|------14------------------------|
--4--------6--------|--11------13--14----11--13--11--|
--2--------3--------|--------------------------------|
--2--------4--------|--------------------------------|
--------------------|--------------------------------|


  E   E   E   Q     E   Q        E   E   E   Q     E   E   E   
---------12--14----12--------|--------------------------------|
-----------------------14----|------14------------------------|
--L--11----------------------|--11------13--14----11--13--11--|
-----------------------------|--------------------------------|
-----------------------------|--------------------------------|
-----------------------------|--------------------------------|


  E   E   E   Q     E   E   E      E   E   E   Q     E   E   E   
-------------12----------------|--------------------------------|
-----14--15--------15--14------|------14------------------------|
--L------------------------14--|--11------13--14----11--13--11--|
-------------------------------|--------------------------------|
-------------------------------|--------------------------------|
-------------------------------|--------------------------------|


  E   E   E   Q     E   Q        E   E   E   Q.      E   E   
-----------------------------|--12--14--12------------------|
---------10--12----10--------|--------------14------12--14--|
--L--11----------------13----|------------------------------|
-----------------------------|------------------------------|
-----------------------------|------------------------------|
-----------------------------|------------------------------|


   E   Q.      E   E   E   E                                                   
------------------------------|-----|-----|-----|-----|-----|-----|-----|-----|
--12--------------------------|-----|-----|-----|-----|-----|-----|-----|-----|
------14------13--14--13------|-----|-----|-----|-----|-----|-----|-----|-----|
--------------------------14--|-----|-----|-----|-----|-----|-----|-----|-----|
------------------------------|-----|-----|-----|-----|-----|-----|-----|-----|
------------------------------|-----|-----|-----|-----|-----|-----|-----|-----|


  S S S S S S S S S S S S S S S S    S S S S S S S S S S S S S S S S  
----------------------------------|----------------------------------|
--7-7-7---7-7-7---7-7-7---7-7-7---|--7-7-7---7-7-7---7-7-7---7-7-7---|
--6-6-6---6-6-6---6-6-6---6-6-6---|--6-6-6---6-6-6---6-6-6---6-6-6---|
--4-4-4---4-4-4---4-4-4---4-4-4---|--4-4-4---4-4-4---4-4-4---4-4-4---|
----------------------------------|----------------------------------|
----------------------------------|----------------------------------|


  S S S S S S S S S S S S S S S S    S S S S S S S S  S.S. S S. S. S  
----------------------------------|----------------------------------|
--7-7-7---7-7-7---7-7-7---7-7-7---|--7-7-7---7-7-7-------------------|
--6-6-6---6-6-6---6-6-6---6-6-6---|--6-6-6---6-6-6-------------------|
--4-4-4---4-4-4---4-4-4---4-4-4---|--4-4-4---4-4-4-------------------|
----------------------------------|----------------------------------|
----------------------------------|------------------11-9--7-9--7--6-|


  W                   W                 
-------------------|-------------------|
-------------------|-------------------|
-------------------|-------------------|
-------------------|-------------------|
--0----------------|--L----------------|
--0----------------|--L----------------|


   ^  v  ^  v  ^  v  ^  v  ^  v  ^  v  ^  v  ^  v  
   S  S  S  S  S  S  S  S  S  S  S  S  S  S  S  S  
--------------------------------------------------|
--------------------------------------------------|
--11-11-11-11-11-11-11-11-11-11-11-11-11-11-11-11-|
--------------------------------------------------|
---9--9--9--9--9--9--9--9--9--9--9--9--9--9--9--9-|
--------------------------------------------------|


   ^  v  ^  v  ^  v  ^  v  ^  v  ^  v  ^  v  ^  v  
   S  S  S  S  S  S  S  S  S  S  S  S  S  S  S  S  
--------------------------------------------------|
--------------------------------------------------|
--11-11-11-11-11-11-11-11-11-11-11-11-11-11-11-11-|
--------------------------------------------------|
---9--9--9--9--9--9--9--9--9--9--9--9--9--9--9--9-|
--------------------------------------------------|


   ^  v  ^  v  ^  v  ^  v  ^  v  ^  v  ^  v  ^  v  
   S  S  S  S  S  S  S  S  S  S  S  S  S  S  S  S  
--------------------------------------------------|
--------------------------------------------------|
--11-11-11-11-11-11-11-11-11-11-11-11-11-11-11-11-|
--------------------------------------------------|
---9--9--9--9--9--9--9--9--9--9--9--9--9--9--9--9-|
--------------------------------------------------|


   ^  v  ^  v  ^  v  ^  v  ^  v  ^  v  ^  v  ^  v  
   S  S  S  S  S  S  S  S  S  S  S  S  S  S  S  S  
--------------------------------------------------|
--------------------------------------------------|
--11-11-11-11-11-11-11-11-11-11-11-11-11-11-11-11-|
--------------------------------------------------|
---9--9--9--9--9--9--9--9--9--9--9--9--9--9--9--9-|
--------------------------------------------------|


   ^  v  ^  v  ^  v  ^  v  ^  v  ^  v  ^  v  ^  v  
   S  S  S  S  S  S  S  S  S  S  S  S  S  S  S  S  
--------------------------------------------------|
--------------------------------------------------|
--11-11-11-11-11-11-11-11-14-14-14-14-14-14-14-14-|
--------------------------------------------------|
---9--9--9--9--9--9--9--9-12-12-12-12-12-12-12-12-|
--------------------------------------------------|


   ^  v  ^  v  ^  v  ^  v  ^  v  ^  v  ^  v  ^  v  
   S  S  S  S  S  S  S  S  S  S  S  S  S  S  S  S  
--------------------------------------------------|
--------------------------------------------------|
--16-16-16-16-16-16-16-16-13-13-13-13-13-13-13-13-|
--------------------------------------------------|
--14-14-14-14-14-14-14-14-11-11-11-11-11-11-11-11-|
--------------------------------------------------|


   ^  v  ^  v  ^  v  ^  v  ^  v  ^  v  ^  v  ^  v  
   S  S  S  S  S  S  S  S  S  S  S  S  S  S  S  S  
--------------------------------------------------|
--------------------------------------------------|
--11-11-11-11-11-11-11-11-14-14-14-14-14-14-14-14-|
--------------------------------------------------|
---9--9--9--9--9--9--9--9-12-12-12-12-12-12-12-12-|
--------------------------------------------------|


   ^  v  ^  v  ^  v  ^  v  ^  v  ^  v  ^  v  ^  v  
   S  S  S  S  S  S  S  S  S  S  S  S  S  S  S  S  
--------------------------------------------------|
--------------------------------------------------|
--16-16-16-16-16-16-16-16-18-18-18-18-18-18-18-18-|
--------------------------------------------------|
--14-14-14-14-14-14-14-14-16-16-16-16-16-16-16-16-|
--------------------------------------------------|


   ^  v  ^  v  ^  v  ^  v  ^  v  ^  v  ^  v  ^  v  
   S  S  S  S  S  S  S  S  S  S  S  S  S  S  S  S  
--------------------------------------------------|
--------------------------------------------------|
--14-14-14-14-14-14-14-14-14-14-14-14-14-14-14-14-|
--------------------------------------------------|
--12-12-12-12-12-12-12-12-12-12-12-12-12-12-12-12-|
--------------------------------------------------|


   ^  v  ^  v  ^  v  ^  v  ^  v  ^  v  ^  v  ^  v  
   S  S  S  S  S  S  S  S  S  S  S  S  S  S  S  S  
--------------------------------------------------|
--------------------------------------------------|
--14-14-14-14-14-14-14-14-18-18-18-18-19-19-19-19-|
--------------------------------------------------|
--12-12-12-12-12-12-12-12-16-16-16-16-17-17-17-17-|
--------------------------------------------------|


   ^  v  ^  v  ^  v  ^  v  ^  v  ^  v  ^  v  ^  v  
   S  S  S  S  S  S  S  S  S  S  S  S  S  S  S  S  
--------------------------------------------------|
--------------------------------------------------|
--13-13-13-13-13-13-13-13-13-13-13-13-13-13-13-13-|
--------------------------------------------------|
--11-11-11-11-11-11-11-11-11-11-11-11-11-11-11-11-|
--------------------------------------------------|


   ^  v  ^  v  ^  v  ^  v  ^  v  ^  v  ^  v  ^  v  
   S  S  S  S  S  S  S  S  S  S  S  S  S  S  S  S  
--------------------------------------------------|
--------------------------------------------------|
--13-13-13-13-13-13-13-13-18-18-18-18-16-16-16-16-|
--------------------------------------------------|
--11-11-11-11-11-11-11-11-16-16-16-16-14-14-14-14-|
--------------------------------------------------|


   ^  v  ^  v  ^  v  ^  v  ^  v  ^  v  ^  v  ^  v  
   S  S  S  S  S  S  S  S  S  S  S  S  S  S  S  S  
--------------------------------------------------|
--------------------------------------------------|
--13-13-13-13-13-13-13-13-13-13-13-13-13-13-13-13-|
--------------------------------------------------|
--11-11-11-11-11-11-11-11-11-11-11-11-11-11-11-11-|
--------------------------------------------------|


   ^  v  ^  v  ^  v  ^  v  ^  v  ^  v  ^  v  ^  v  
   S  S  S  S  S  S  S  S  S  S  S  S  S  S  S  S  
--------------------------------------------------|
--------------------------------------------------|
--13-13-13-13-13-13-13-13-16-16-16-16-14-14-14-14-|
--------------------------------------------------|
--11-11-11-11-11-11-11-11-14-14-14-14-12-12-12-12-|
--------------------------------------------------|


   ^  v  ^  v  ^  v  ^  v  ^  v  ^  v  ^  v  ^  v  
   S  S  S  S  S  S  S  S  S  S  S  S  S  S  S  S  
--------------------------------------------------|
--------------------------------------------------|
--11-11-11-11-11-11-11-11-14-14-14-14-14-14-14-14-|
--------------------------------------------------|
---9--9--9--9--9--9--9--9-12-12-12-12-12-12-12-12-|
--------------------------------------------------|


   ^  v  ^  v  ^  v  ^  v  ^  v  ^  v  ^  v  ^  v  
   S  S  S  S  S  S  S  S  S  S  S  S  S  S  S  S  
--------------------------------------------------|
--------------------------------------------------|
--11-11-11-11-11-11-11-11-13-13-13-13-13-13-13-13-|
--------------------------------------------------|
---9--9--9--9--9--9--9--9-11-11-11-11-11-11-11-11-|
--------------------------------------------------|


   ^  v  ^  v  ^  v  ^  v  ^  v  ^  v  ^  v  ^  v  
   S  S  S  S  S  S  S  S  S  S  S  S  S  S  S  S  
--------------------------------------------------|
--------------------------------------------------|
--14-14-14-14-14-14-14-14-14-14-14-14-14-14-14-14-|
--------------------------------------------------|
--12-12-12-12-12-12-12-12-12-12-12-12-12-12-12-12-|
--------------------------------------------------|


   ^  v  ^  v  ^  v  ^  v  ^  v  ^  v  ^  v  ^  v  
   S  S  S  S  S  S  S  S  S  S  S  S  S  S  S  S  
--------------------------------------------------|
--------------------------------------------------|
--14-14-14-14-14-14-14-14-18-18-18-18-19-19-19-19-|
--------------------------------------------------|
--12-12-12-12-12-12-12-12-16-16-16-16-17-17-17-17-|
--------------------------------------------------|


   ^  v  ^  v  ^  v  ^  v  ^  v  ^  v  ^  v  ^  v  
   S  S  S  S  S  S  S  S  S  S  S  S  S  S  S  S  
--------------------------------------------------|
--------------------------------------------------|
--13-13-13-13-13-13-13-13-13-13-13-13-13-13-13-13-|
--------------------------------------------------|
--11-11-11-11-11-11-11-11-11-11-11-11-11-11-11-11-|
--------------------------------------------------|


   ^  v  ^  v  ^  v  ^  v  ^  v  ^  v  ^  v  ^  v  
   S  S  S  S  S  S  S  S  S  S  S  S  S  S  S  S  
--------------------------------------------------|
--------------------------------------------------|
--13-13-13-13-13-13-13-13-18-18-18-18-16-16-16-16-|
--------------------------------------------------|
--11-11-11-11-11-11-11-11-16-16-16-16-14-14-14-14-|
--------------------------------------------------|


   ^  v  ^  v  ^  v  ^  v  ^  v  ^  v  ^  v  ^  v  
   S  S  S  S  S  S  S  S  S  S  S  S  S  S  S  S  
--------------------------------------------------|
--------------------------------------------------|
--13-13-13-13-13-13-13-13-13-13-13-13-13-13-13-13-|
--------------------------------------------------|
--11-11-11-11-11-11-11-11-11-11-11-11-11-11-11-11-|
--------------------------------------------------|


   ^  v  ^  v  ^  v  ^  v  ^  v  ^  v  ^  v  ^  v  
   S  S  S  S  S  S  S  S  S  S  S  S  S  S  S  S  
--------------------------------------------------|
--------------------------------------------------|
--13-13-13-13-13-13-13-13-16-16-16-16-14-14-14-14-|
--------------------------------------------------|
--11-11-11-11-11-11-11-11-14-14-14-14-12-12-12-12-|
--------------------------------------------------|


   ^  v  ^  v  ^  v  ^  v  ^  v  ^  v  ^  v  ^  v  
   S  S  S  S  S  S  S  S  S  S  S  S  S  S  S  S  
--------------------------------------------------|
--------------------------------------------------|
--11-11-11-11-11-11-11-11-14-14-14-14-14-14-14-14-|
--------------------------------------------------|
---9--9--9--9--9--9--9--9-12-12-12-12-12-12-12-12-|
--------------------------------------------------|


   ^  v  ^  v  ^  v  ^  v  ^  v  ^  v  ^  v  ^  v  
   S  S  S  S  S  S  S  S  S  S  S  S  S  S  S  S  
--------------------------------------------------|
--------------------------------------------------|
--11-11-11-11-11-11-11-11-13-13-13-13-13-13-13-13-|
--------------------------------------------------|
---9--9--9--9--9--9--9--9-11-11-11-11-11-11-11-11-|
--------------------------------------------------|


   S  S S  S  S S  S  S S  S  S S  S  S S  S  
---------------------------------------------|
---------------------------------------------|
--11-11---11-11---11-11---11-11---11-11---11-|
---------------------------------------------|
---9--9----9--9----9--9----9--9----9--9----9-|
---------------------------------------------|


   S S  S  S S  S  S S  Q     Q       S S S S S S S S S S S S S S S S  
-----------------------------------|----------------------------------|
-----------------------------------|----------------------------------|
--11---11-11---11-11---11----14----|--7-7---7-7---7-7---7-7---7-7---7-|
-----------------------------------|----------------------------------|
---9----9--9----9--9----9----12----|--5-5---5-5---5-5---5-5---5-5---5-|
-----------------------------------|----------------------------------|


  S S S S S S S S Q    Q        S  S S  S  S S  S  S S  S  S S  S  S S  
S  
----------------------------|---------------------------------------------|
----------------------------|---------------------------------------------|
--7---7-7---7-7---7----9----|--11-11---11-11---11-11---11-11---11-11---11-|
----------------------------|---------------------------------------------|
--5---5-5---5-5---5----7----|---9--9----9--9----9--9----9--9----9--9----9-|
----------------------------|------------------------------------------
Добавлено: 19.05.2012
Другие материалы по этой песне:

Страница создана 10.03.2012
http://primanota.ru/senses-fail/still-searching-chords.htm
Привет, Гость.
Предлагаем пройти революционный курс по гитаре.
Подарок от PrimaNota.Ru, забирай!