PrimaNota.ru - самый крупный в мире бесплатный архив песенных текстов, аккордов, табулатур и нот


Senses Fail - The Rapture - таба, бас-таба, видео

Регистрация Запомнить меня
Войти через:  Facebook Google Twitter Vk Yandex Mail.ru

Senses Fail - The Rapture - таба, бас-таба, видео

Печатать
Просмотров: 125
Senses Fail - Still Searching - The Rapture
Tabbed by Yozoniac
Credit goes to..

[These are the parts I figured out so far, I would prefer you don't rate this yet until
I finish tabbing but if you want to be an ass do what you wish. I'm going to label
the sections and shit tell me what you think and shit. I'm not looking for the credit or
anything so I'll give credit to where it's due. so whatever you guys think works let 
me know, use the comment box to add your additions, laters fellow fans!]


FYI!: They're not in order so listen and place the parts you wish where you think.

[A]
e|---------------------------------------------------|-----------------------------------|
b|---------------------------------------------------|-----------------------------------|
g|--11-11-11-11-11-11-11-11-11-11-11-11-11-11-11-11--|--9-9-9-9-9-9-9-9-9-9-9-9-9-9-9-9--|
d|---X--X--X--X--X--X--X--X--X--X--X--X--X--X--X--X--|--X-X-X-X-X-X-X-X-X-X-X-X-X-X-X-X--|
a|---9--9--9--9--9--9--9--9--9--9--9--9--9--9--9--9--|--7-7-7-7-7-7-7-7-7-7-7-7-7-7-7-7--|
D|---------------------------------------------------|-----------------------------------|

[B]
e|-----------------------------------|-----------------------------------|
b|-----------------------------------|-----------------------------------|
g|--7-7-7-7-7-7-7-7-7-7-7-7-7-7-7-7--|--7-7-7-7-7-7-7-7-7-7-7-7-7-7-7-7--|
d|--X-X-X-X-X-X-X-X-X-X-X-X-X-X-X-X--|--X-X-X-X-X-X-X-X-X-X-X-X-X-X-X-X--|
a|--5-5-5-5-5-5-5-5-5-5-5-5-5-5-5-5--|--5-5-5-5-5-5-5-5-5-5-5-5-5-5-5-5--|
D|-----------------------------------|-----------------------------------|

[C]
e|-------------------------|
b|-------------------------|
g|--14-14-14-10-10-10-9-9--|
d|---X--X--X--X--X--X-X-X--|
a|--12-12-12--8--8--8-7-7--|
D|-------------------------|

[D]
e|-------------------------------|
b|-------------------------------|
g|------------------------9-9-9--|
d|--5-5-5-4-4-4-0-0-0-0-0-X-X-X--|
a|--5-5-5-4-4-4-0-0-0-0-0-7-7-7--|
D|--5-5-5-4-4-4-0-0-0-0-0--------|

[E]
e|---------------------------|
b|---------------------------|
g|---------------------------|
d|--5-5-5-4-4-4-0-0-0-2-2-2--|
a|--5-5-5-4-4-4-0-0-0-2-2-2--|
D|--5-5-5-4-4-4-0-0-0-2-2-2--|

[This I can almost assure you is the ending]
e|---------------------------------|
b|---------------------------------|
g|---------------------------------|
d|--5-5-5--4-4-4------0--Let Ring--|
a|--5-5-5--4-4-4------0------------|
D|--5-5-5--4-4-4------0------------|
PM         - - -
Добавлено: 22.07.2012
Другие материалы по этой песне:

Страница создана 18.04.2012
http://primanota.ru/senses-fail/the-rapture-chords.htm
Привет, Гость.
Предлагаем пройти революционный курс по гитаре.
Подарок от PrimaNota.Ru, забирай!