PrimaNota.ru - самый крупный в мире бесплатный архив песенных текстов, аккордов, табулатур и нот


Senses Fail - Renacer - таба, видео

Регистрация Запомнить меня
Войти через:  Facebook Google Twitter Vk Yandex Mail.ru

Senses Fail - Renacer - таба, видео

Печатать
Просмотров: 21
Senses Fail - Renacer
Tabbed by: vppark2
E-mail: linkinp751@gmail.com

Tuning: Drop C

All credit goes to this guy https://www.youtube.com/watch?v=qciEcYTgrsg

Intro
D|---------------------------------------------------|
A|---------------------------------------------------|
F|---------------------------------------------------|
C|---------------------------------------------------|x4
G|---------------------------------------------------|
C|0--0--0--0--0--0-----0-----0--0--0--0--0--0-----0--|

Verse
D|----------------------------------------------------------------------------------|
A|----------------------------------------------------------------------------------|
F|10------------------------(10)------------------------9---------------------------|
C|x--------------------------x--------------------------x---------------------------|
G|8-------------------------(8)-------------------------7---------------------------|
C|----------------------------------------------------------------------------------|

D|------------------------------------------------------------------------------------|
A|------------------------------------------------------------------------------------|
F|(9)------------------------7-------------------------(7)----------------------------|
C|-x-------------------------x--------------------------x-----------------------------|
G|(7)------------------------5-------------------------(5)----------------------------|
C|------------------------------------------------------------------------------------|

D|-----------------------------------------------------------------------------------|
A|-----------------------------------------------------------------------------------|
F|7-------------------------(7)-------------------------10---------------------------|
C|x--------------------------x--------------------------x----------------------------|
G|5-------------------------(5)-------------------------8----------------------------|
C|-----------------------------------------------------------------------------------|

D|------------------------------------------------------------------------------------|
A|------------------------------------------------------------------------------------|
D|(10)-----------------------9-------------------------(9)----------------------------|
C|-x-------------------------x--------------------------x-----------------------------|
G|(8)------------------------7-------------------------(7)----------------------------|
C|------------------------------------------------------------------------------------|

D|----------------------------------------------------------------------------------|
A|----------------------------------------------------------------------------------|
F|7-------------------------(7)-------------------------7---------------------------|
C|x--------------------------x--------------------------x---------------------------|
G|5-------------------------(5)-------------------------5---------------------------|
C|----------------------------------------------------------------------------------|

Verse II
D|------------------------------------------------------------------------------|
A|------------------------------------------------------------------------------|
F|(7)---------------------------------------------------------------------------|
C|-x--------------0-------------------------------------------------------------|
G|(5)-------------0-------------------------------------------------------------|
C|----------------0-------------------------------------------------------------|

D|---------------------------------------------------------------------------|
A|---------------------------------------------------------------------------|
F|7-----7-----7-----7-----7-----7-----7-----7-----6---6---6---6---6---6---6--|
C|x-----x-----x-----x-----x-----x-----x-----x-----x---x---x---x---x---x---x--|
G|5-----5-----5-----5-----5-----5-----5-----5-----4---4---4---4---4---4---4--|
C|---------------------------------------------------------------------------|

D|--------------------------------------------------------------------------------|
A|--------------------------------------------------------------------------------|
F|6-------------------------------------------------------------------------------|
C|x-----3---3---3---3---3---3---3---3-----4---4---4---4---4---4---4---4-----------|
G|4-----3---3---3---3---3---3---3---3-----4---4---4---4---4---4---4---4-----------|
C|------3---3---3---3---3---3---3---3-----4---4---4---4---4---4---4---4-----------|

Repeat the last 2 tab pieces 3 more times.

Verse III
D|---------------------------------------------------------------------------|
A|---------------------------------------------------------------------------|
F|--------------------------------------------------------------------5---5--|
C|--------------------------------------------------------------------x---x--|
G|0-----0-----0----------0-----0------------0---0--------0------------3---3--|
C|0-----0-----0----------0-----0------------0---0--------0-------------------|

D|-----------------------------------------------------------------------|
A|-----------------------------------------------------------------------|
F|5---5---5---5---5---5--------------------------------------------------|
C|x---x---x---x---x---x-----4-----4-----4-----4-----4-----4-----4-----4--|
G|3---3---3---3---3---3-----4-----4-----4-----4-----4-----4-----4-----4--|
C|--------------------------4-----4-----4-----4-----4-----4-----4-----4--|

Repeat the last 2 tab pieces 3 more times.

D|-----------------------------------------------------------------|
A|-----------------------------------------------------------------|
F|-----------------------------------------------------------------|x4
C|0-----------1---3---------------------1---3----------------------|
G|0---0---0---1---3---0---0---0-----0---1---3---0---0---0---0---0--|
C|0---0---0---1---3---0---0---0-----0---1---3---0---0---0---0---0--|
          .               .   .     .               .   .   .   .
D|-----------------------------------------------------------------------------|
A|-----------------------------------------------------------------------------|
F|10-10-10-10-10-10-10-10----10--10--10--10--10--10--10--10-----9---9---9---9--|
C|x--x--x--x--x--x--x--x-----x---x---x---x---x---x---x---x------x---x---x---x--|
G|8--8--8--8--8--8--8--8-----8---8---8---8---8---8---8---8------7---7---7---7--|
C|-----------------------------------------------------------------------------|

D|-------------------------------------------------|
A|-------------------------------------------------|
F|9---9---9---9-----9---9---9---9---9---9---9---9--|
C|x---x---x---x-----x---x---x---x---x---x---x---x--|
G|7---7---7---7-----7---7---7---7---7---7---7---7--|
C|-------------------------------------------------|

D|----------------------------------------------------------------------------|
A|----------------------------------------------------------------------------|
F|----------------------------------------------------------------------------|
C|0------------------------------------------------------8-----10\------------|
G|0---0---0---0---0---0---0---0-----0--0--0--0--0--0--0--8-----10\-----0---0--|
C|0---0---0---0---0---0---0---0-----0--0--0--0--0--0--0--8-----10\-----0---0--|
          .   .   .   .   .   .     .  .  .  .  .  .  .                    .
D|----------------------------------------------------10----------------------|
A|--------------------------------------------------------10--------------10--|
F|------------------------------------------------------------10------10------|
C|----------------------------------------------------------------12----------|
G|0--0--0--0--0-----0---0---0---0---0---0---0---0-----------------------------|
C|0--0--0--0--0-----0---0---0---0---0---0---0---0-----------------------------|
  .  .  .  .  .         .   .   .   .   .   .   .
D|10---------10----------------------10--12----------------------------------|
A|----10---------10--------------10------------------------------------------|
F|-------------------10------10------------------12--12--12--12--12--12--12--|
C|-----------------------12----------------------x---x---x---x---x---x---x---|
G|-----------------------------------------------10--10--10--10--10--10--10--|
C|---------------------------------------------------------------------------|

D|---------------------------------------|
A|---------------------------------------|
F|12-----12--12--12--12--12--12--12--12--|
C|x------x---x---x---x---x---x---x---x---|
G|10-----10--10--10--10--10--10--10--10--|
C|---------------------------------------|

D|-----------------------------------------------------------------|
A|-----------------------------------------------------------------|
F|-----------------------------------------------------------------|x2
C|0-----------1---3------------------------------------------------|
G|0---0---0---1---3---0---0---0-----0---1---3---0---0---0---0---0--|
C|0---0---0---1---3---0---0---0-----0---1---3---0---0---0---0---0--|
          .               .   .     .               .   .   .   .
D|-----------------------------------------------------------------|
A|-----------------------------------------------------------------|
F|-----------------------------------------------------------------|x2
C|0-----------1---3---------------------1---3-----------1-------3--|
G|0---0---0---1---3---0---0---0-----0---1---3---0---0---1---0---3--|
C|0---0---0---1---3---0---0---0-----0---1---3---0---0---1---0---3--|
          .               .   .     .               .       .
D|------------------------------------------------------------------------------|
A|------------------------------------------------------------------------------|
F|------------------------------------------------------------------------------|
C|0-----------------------------------------------------------------------------|
G|0-----------------------------------------------------------------------------|
C|0-----------------------------------------------------------------------------|

************************************

| /   slide up
| \   slide down
| h   hammer-on
| p   pull-off
| ~   vibrato
| +   harmonic
| x   Mute note
| b   Bend
| pb  Pre-bend
| br  Bend release
| pbr Pre-bend release
| brb Bend release bend

************************************
Добавлено: 19.02.2016
Другие материалы по этой песне:

Страница создана 14.12.2015
http://primanota.ru/senses-fail/renacer-chords.htm
Привет, Гость.
Предлагаем пройти революционный курс по гитаре.
Подарок от PrimaNota.Ru, забирай!