PrimaNota.ru - самый крупный в мире бесплатный архив песенных текстов, аккордов, табулатур и нот


Rush - The Cameras Eye - таба, видео

Регистрация Запомнить меня
Войти через:  Facebook Google Twitter Vk Yandex Mail.ru

Rush - The Cameras Eye - таба, видео

Печатать
Просмотров: 93
 Mildly overdriven guitar tone w/chorus
    e Hw+
|-----------------|-----------------|-----------------|-----------------|
|-----------------|-----------------|-----------------|-----------------|
4-----------------|-----------------|-----------------|-----------------|
4-----------------|-----------------|-----------------|-----------------|
|-----------------|-----------------|-----------------|-----------------|
|---7/8-----------|-----------------|-----------------|-----------------|

  Q     e
|<12>-------------|-----------------|-----------------|-----------------|
|-----------------|-----------------|-----------------|-----------------|
|------<5>.-------|-----------------|-----------------|--------Probably-|
|-----------------|-----------------|-----------------|-----x\-a "mild"-|
|-----------------|-----------------|-----------------|-----x\-pick-----|
|-----------------|-----------------|-----------------|--------slide----|

  Note:  Bracketed "{}" notes below are "harp" harmonics which are
  executed by fretting a C chord (see below) in the first position
  and plucking the string with the thumb or pick while touching 12 frets
  above the fretted note with the tip of the picking hand index finger.

            C
  e |---|---|-O-|---|
  B |-O-|---|---|---|
  G 0---|---|---|---|
  D |---|-O-|---|---|
  A |---|---|-O-|---|
  E |---|---|---|---|

  Q     q   Q       Q     he
|{13}-------------|------{15}-------|-----------------|-----------------|
|-----------------|{13}-------------|-----------------|-----------------|
|----------{12}---|-----------------|-----------------|-----------------|
|------{14}-------|-----------------|-----------------|-----------------|
|-----------------|-----------------|-----------------|-----------------|
|-----------------|-----------------|-----------------|-----------------|

  h             e   w
|---2-------------|<5>--------------|-----------------|-----------------|
|-15^-------------|-----------------|-----------------|-----------------|
|--------------<5>|-----------------|-----------------|-----------------|
|-----------------|-----------------|-----------------|-----------------|
|-----------------|-----------------|-----------------|-----------------|
|-----------------|-----------------|-----------------|-----------------|

                                      C
  Q     q   q   e   Q     q   e e     Q     Q     ss    Q     e e e ss
|-----------------|-----------------|-8-----8-----88--|-8-----8-8-8-88-\|
|-x-----x---x---x-|-x-----x---x-x---|-8-----8-----88--|-8-----8-8-8-88-\|
|-x-----x---x---x-|-x-----x---x-x---|-9-----9-----99--|-9-----9-8-9-99-\|
|-x-----x---x---x-|-x-----x---x-x---|-10----10----110-|-10----101010110\|
|-x-----x---x---x-|-x-----x---x-x---|-----------------|-----------------|
|-----------------|-----------------|-----------------|-----------------|

  Heavily overdriven tone w/chorus, it is likely that the guitar was
  double, triple or even quadruple tracked to thicken the sound.  To
  attempt to duplicate this, use a digital or analog delay unit set at
  0 ms with the level at 100%.

  Bbs2                                C/G   G           F
  ww                                  Q     he          w
|-----------------|-----------------|-----------------|-1---------------|
|-1---------------|-----------------|-5-----3---------|-1---------------|
|-3---------------|-----------------|-5-----4---------|-2---------------|
|-3---------------|-----------------|-5-----5---------|-3---------------|
|-3---------------|-----------------|-3-----5---------|-3---------------|
|-----------------|-----------------|-3-----3---------|-1---------------|

  Bbs2                                C/G   G           F
  ww                                  Q     he          w
|-----------------|-----------------|-----------------|-1---------------|
|-1---------------|-----------------|-5-----3---------|-1---------------|
|-3---------------|-----------------|-5-----4---------|-2---------------|
|-3---------------|-----------------|-5-----5---------|-3---------------|
|-3---------------|-----------------|-3-----5---------|-3---------------|
|-----------------|-----------------|-3-----3---------|-1---------------|

  Bbs2                                C/G   G     F     Bbs2
  He            e   q   e q   e e     Q     Q     q     H         q   q
|-----------------|-----------------|-------------1---|-----------0-----|
|-1---------------|-1-----1-----1---|-5-----3-----1---|-1-------------1-|
|-3-------------3-|-----0-----3-----|-5-----4-----2---|-3---------------|
|-3---------------|-----------------|-5-----5-----3---|-3---------------|
|-3---------------|-----------------|-3-----5-----3---|-3---------------|
|-----------------|-----------------|-3-----3-----1---|-----------------|

                    C/G   G           F             Bbs2
    q   q   e q     Q     he          He            ss  h         q   q
|-----------------|-----------------|-1---------------|-----------------|
|-----------------|-3-----3---------|-1-------------11|-1-------------1-|
|---3---0---------|-3-----4---------|-2-------------33|-3---------3-----|
|-----------3-----|-3-----5---------|-3-------------33|-3---------------|
|-------------3---|-5-----5---------|-3-------------33|-3---------------|
|-----------------|-5-----3---------|-1---------------|-----------------|

            C       C/G   G     F     Bbs2
    q   e e sss     Q     Q     q     w+
|---0---1-0-888---|-------------1---|-----------------|-----------------|
|---------1/888---|-3-----3-----1---|-1---------------|-----------------|
|---------3/999---|-3-----4-----2---|-3---------------|-----------------|
|-----------1110--|-3-----5-----3---|-3---------------|-----------------|
|-----------------|-5-----5-----3---|-3---------------|-----------------|
|-----------------|-5-----3-----1---|-----------------|-----------------|

|-----------------|-----------------|
|-----------------|-----------------|
|-----------------|-----------------|
|-----------------|-----------------|
|-----------------|-----------------|
|-----------------|-----------------|

Note:  tablature compressed below
                                              Heavily
                                              overdriven w/chorus
  -- guitar rests during synth bridge --      h+
|---------|---------|---------|---------|---------|---------|
|---------|---------|---------|---------|---------|---------|
|---------|---------|---------|---------|---------|---------|
|---------|---------|---------|---------|---------|---------|
|---------|---------|---------|---------|-----3---|---------|
|---------|---------|---------|---------|---------|---------|

                   e  h   h+
|---------|---------|---------|---------|---------|---------|
|---------|---------|---------|---------|---------|---------|
|---------|---------|---------|---------|---------|---------|
|---------|---------|---------|---------|---------|---------|
|---------|--------3|-4---4---|---------|---------|---------|
|---------|---------|---------|---------|---------|---------|

                                         Repeat 3 times
  h   h+                                  Q  Q  q   Q  Q  q
|---------|---------|---------|---------|---------|---------|
|---------|---------|---------|---------|---------|---------|
|---------|---------|---------|---------|o--------|---------|
|---------|---------|---------|---------|o--------|---------|
|-3---3---|---------|---------|---------|-4-----4-|-6--4--3-|
|---------|---------|---------|---------|----4----|---------|

  Q  Q  q   Q  Q  q   Q  Q  q   Q  Q  q   Q  Q  q   Q  Q  q
|---------|---------|---------|---------|---------|---------|
|---------|---------|---------|---------|---------|---------|
|---------|---------|---------|---------|---------|--------o|
|---------|---------|---------|---------|---------|--------o|
|-4-----4-|-6--4--3\|-3-------|-3-------|-3-------|-3-------|
|----4----|---------|----1--3-|----1--3-|----1--3-|----1--3-|

  Two guitars, flanger on the higher octave (flanger is an
  Electro-Harmonix Electric Mistress).  Lower guitar is on
  the left channel, higher guitar is on the right channel.

  Q  Q  q   Q  Q  q   Q  Q  q   Q  Q  q   Q  Q  q   Q  Q  q
|---------|---------|---------|---------|---------|---------|F
|---------|---------|---------|---------|---------|---------|L
|---------|-13-11-10|---------|-13-11-10|o--------|--------o|A
|-11----11|---------|-11----11|---------|o10------|-10-----o|N
|----11---|---------|----11---|---------|----8--10|----8--10|G
|---------|---------|---------|---------|---------|---------|E
                                                            |
|---------|---------|---------|---------|---------|---------|
|---------|---------|---------|---------|---------|---------|
|---------|---------|---------|---------|o--------|--------o|
|---------|---------|---------|---------|o--------|--------o|
|-4-----4-|-6--4--3-|-4-----4-|-6--4--3-|-3-------|-3-------|
|----4----|---------|----4----|---------|----1--3-|----1--3-|

Note:  tablature expanded to normal width

  Flanger off, overdriven w/chorus
  e     q   e       q   e       e q   q   q     e     q     e     q   e
|-----------------|---------|-----------------|---------|-----------------|
|-----------------|---------|-----------------|---------|-----------------|
|-----------------2---------4-----------------2---------4-----------------|
|-5-----5---5-----4-5---5---4---5-5---5---5---4-5-----5-4---5-----5---5---|
|-7-----5---8-----|-5---7---|---5-7---8---5---|-7-----5-|---8-----5---7---|
|-----------------|---------|-----------------|---------|-----------------|

    e q   q   q
|-----------------|
|-----------------|
|-----------------|
|---5-5---5---5---|
|---5-7---8---5---|
|-----------------|

Note:  In the section below, I believe Lifeson played it differently
       live compared to the studio.  I believe he played everything
       in the first position as indicated.  The higher notes that
       are heard can be attributed to to the Nashville tuned
       acoustic guitar.

  Grim faced and forbidding...
  Repeat 3 times, electric w/clean tone & chorus, Acoustic (Nashville
  tuned).
  C                                                   F     C   F
  q   e e e e   q   e e e e   q   e e e e   q   q     q   e q   e
|-0---0-0-0-0-|-0---0-0-0-0-|-0---0-0-0-0-|-0---0---|-1---1-----1-|B
|-1---1-1-1-1-|-1---1-1-1-1-|-1---1-1-1-1-|-1---1---|-1---1-1---1-|O
3o0---0-0-0-0-|-0---0-0-0-0-|-0---0-0-0-0-2-0---0---3-2---2-0---2-|T
4o2---2-2-2-2-|-2---2-2-2-2-|-2---2-2-2-2-4-2---2---4-3---3-2---3-|H
|-3---3-3-3-3-|-3---3-3-3-3-|-3---3-3-3-3-|-3---3---|-3---3-3---3-|
|-------------|-------------|-------------|---------|-------------|

  Bb      F           C   F   Bb      F
  q   q   q     q   e q   e   q   q   q
|-1---1---1---|-1---1-----1-|-1---1---1---|B
|-3---3---1---|-1---1-1---1-|-3---3---1---|O
|-3---3---2---|-2---2-0---2-|-3---3---2--o|T
|-3---3---3---|-3---3-2---3-|-3---3---3--o|H
|---------3---|-3---3-3---3-|---------3---|
|-------------|-------------|-------------|

Electric overdriven w/chorus
  e     q   e       q   e       e q   q   q     e     q
|-----------------|---------|-----------------|---------|E
|-----------------|---------|-----------------|---------|L
4-----------------2---------4-----------------2---------|E
4-5-----5---5-----4-5---5---4---5-5---5---5---4-5-----5-|C
|-7-----5---8-----|-5---7---|---5-7---8---5---|-7-----5-|
|-----------------|---------|-----------------|---------|
                                                        |
  C                                                     |
|-0-----0---0-----|-0---0---|---0-0---0---0---|-0-----0-|A
|-1-----1---1-----|-1---1---|---1-1---1---1---|-1-----1-|C
4-0-----0---0-----2-0---0---4---0-0---0---0---2-0-----0-|O
4-2-----2---2-----4-2---2---4---2-2---2---2---4-2-----2-|U
|-3-----3---3-----|-3---3---|---3-3---3---3---|-3-----3-|S
|-----------------|---------|-----------------|---------|

    e     q   e       e q   q   q     e     q   e       q   e
|-----------------|-----------------|-----------------|---------|E
|-----------------|-----------------|-----------------|---------|L
4---5-------------|---------5-------|-----------------2---------|E
4---5-----5---5---|---5-5---5---5-/-|-10----10--10----4-10--10--|C
|---8-----5---7---|---5-7---8---7-/-|-12----10--13----|-10--12--|
|-----------------|-----------------|-----------------|---------|
                                                                |
    C                                 F                         |
|---0-----0---0---|---0-0---0---0---|-1-----1---1-----|-1---1---|A
|---1-----1---1---|---1-1---1---1---|-1-----1---1-----|-1---1---|C
4---0-----0---0---|---0-0---0---0---|-2-----2---2-----2-2---2---|O
4---2-----2---2---|---2-2---2---2---|-3-----3---3-----4-3---3---|U
|---3-----3---3---|---3-3---3---3---|-3-----3---3-----|-3---3---|S
|-----------------|-----------------|-1-----1---1-----|-1---1---|

    e q   q   q     e     q   e       q   e       e q   q   q
|-----------------|-----------------|---------|-----------------|E
|-----------------|-----------------|---------|-----------------|L
4-----------------|-----------------2---------4-----------------|E
4---1010--10--10\-|-5-----5---5-----4-5---5---4---5-5---5---5---|C
|---1012--13--12\-|-7-----5---8-----|-5---7---|---5-7---8---7---|
|-----------------|-----------------|---------|-----------------|
                                                                |
                    C                                           |
|---1-1---1---1---|-0-----0---0-----|-0---0---|---0-0---0---0---|A
|---1-1---1---1---|-1-----1---1-----|-1---1---|---1-1---1---1---|C
4---2-2---2---2---|-0-----0---0-----2-0---0---4---0-0---0---0---|O
4---3-3---3---3---|-2-----2---2-----4-2---2---4---2-2---2---2---|U
|---3-3---3---3---|-3-----3---3-----|-3---3---|---3-3---3---3---|S
|---1-1---1---1---|-----------------|---------|-----------------|

  Repeat 3 times, heavily overdriven w/chorus
  Q     Q     q     Q     q     q     Q     Q     q     Q     q     q
|-----------------|-----------------|-----------------|-----------------|
|-----------------|-----------------|-----------------|-----------------|
|o----------------|-----------------|-----------------|-----------------|
|o----------------|-6-----4-----3---|-----------------|-6-----4-----3\--|
|-4-----------4---|-----------------|-4-----------4---|-----------------|
|-------4---------|-----------------|-------4---------|-----------------|

  Q     Q     q     Q     Q     q     Q     Q     q     Q     Q     q
|-----------------|-----------------|-----------------|-----------------|
|-----------------|-----------------|-----------------|-----------------|
|-----------------|-----------------|-----------------|----------------o|
|-----------------|-----------------|-----------------|----------------o|
|-3---------------|-3---------------|-3---------------|-3---------------|
|-------1-----3---|-------1-----3---|-------1-----3---|-------1-----3---|

  Repeat 4 times, clean tone w/chorus
  Db/F  Db/Gb       Db/F  Db/Gb       Db/F  Db/Gb       Db/F  Db/Gb
  e e e q   e q     e e e q   e q     e e e q   e q     e e e q   e q
|-----------------|-----------------|-----------------|-----------------|
|-----------------|-----------------|-----------------|-----------------|
|o----6-------6---|-----6-------6---|-----6-------6---|-----6-------6---|
|o--6-------6-----|---6-------6-----|---6-------6-----|---6-------6-----|
|-8-----9---------|-8-----9---------|-8-----9---------|-8-----9---------|
|-----------------|-----------------|-----------------|-----------------|

  C/E   C/F         C/E   C/F         C/E   C/F         C/E   C/F
  e e e q   e q     e e e q   e q     e e e q   e q     e e e q   e q
|-----------------|-----------------|-----------------|-----------------|
|-----------------|-----------------|-----------------|-----------------|
|-----5-------5---|-----5-------5---|-----5-------5---|-----5-------5--o|
|---5-------5-----|---5-------5-----|---5-------5-----|---5-------5----o|
|-7-----8---------|-7-----8---------|-7-----8---------|-7-----8---------|
|-----------------|-----------------|-----------------|-----------------|

  Db/F    Db/Gb     Db/F    Db/Gb     C/E     C/F       C/E     C/F
  q   q   q   q     q   q   q   q     q   q   q   q     q   q   q   q
|-----------------|-----------------|-----------------|-----------------|
|----(6)-----(6)--|----(6)-----(6)--|----(5)-----(5)--|----(5)-----(5)--|
|o----6-------6---|-----6-------6--o|o----5-------5---|-----5-------5--o|
|o----6-------6---|-----6-------6--o|o----5-------5---|-----5-------5--o|
|-8-------9-------|-8-------9-------|-7-------8-------|-7-------8-------|
|-----------------|-----------------|-----------------|-----------------|

  Db/F    Db/Gb     Db/F    Db/Gb     Db/F    Db/Gb     Db/F    Db/Gb
  q   e e q   e e   q   e e q   e e   q   e e q   e e   q   e e q   q
|-----------------|-----------------|-----------------|-----------------|
|-----6-6-----6-6-|-----6-6-----6-6-|-----6-6-----6-6-|-----6-6-----6---|
|-----6-6-----6-6-|-----6-6-----6-6-|-----6-6-----6-6-|-----6-6-----6---|
|-6---6-6-6---6-6-|-6---6-6-6---6-6-|-6---6-6-6---6-6-|-6---6-6-6---6---|
|-8-------9-------|-8-------9-------|-8-------9-------|-8-------9-------|
|-----------------|-----------------|-----------------|-----------------|

  C/E     C/F       C/E     C/F       C/E     C/F       C/E     C/F
  q   e e q   e e   q   e e q   e e   q   e e q   e e   q   e e q   q
|-----------------|-----------------|-----------------|-----------------|
|-----5-5-----5-5-|-----5-5-----5-5-|-----5-5-----5-5-|-----5-5-----5---|
|-----5-5-----5-5-|-----5-5-----5-5-|-----5-5-----5-5-|-----5-5-----5---|
|-5---5-5-5---5-5-|-5---5-5-5---5-5-|-5---5-5-5---5-5-|-5---5-5-5---5---|
|-7-------8-------|-7-------8-------|-7-------8-------|-7-------8-------|
|-----------------|-----------------|-----------------|-----------------|

  Heavily overdriven w/chorus
                                The   foc - us    is    sharp in...)
                                      Dbs4
  Q     Q     q     Q     Q     q     Q                 Q     Q
|-----------------|-----------------|-9-----9---------|-9-----9---------|
|-----------------|-----------------|-9-----9---------|-9-----9---------|
|-----------------|-----------------|-11----11--------|-11----11--------|
|-----------------|-6-----4-----3---|-11----11--------|-11----11--------|
|-4-----------4---|-----------------|-11----11--------|-11----11--------|
|-------4---------|-----------------|-9-----9---------|-9-----9---------|

                                      Bbs2
          hw                          w+
|---------9-------|-----------------|-----------------|-----------------|
|---------9-------|-----------------|-1---------------|-----------------|
|---------11------|-----------------|-3---------------|-----------------|
|---------11------|-----------------|-3---------------|-----------------|
|---------11------|-----------------|-3---------------|-----------------|
|---------9-------|-----------------|-----------------|-----------------|

                                      C/G   G           F
                                      Q     he          w
|-----------------|-----------------|-----------------|-1---------------|
|-----------------|-----------------|-5-----3---------|-1---------------|
|-----------------|-----------------|o5-----4---------|-2---------------|
|-----------------|-----------------|o5-----5---------|-3---------------|
|-----------------|-----------------|-3-----5---------|-3---------------|
|-----------------|-----------------|-3-----3---------|-1---------------|

  Bbs2                                C/G   G     F     Bbs2
  ww                                  Q     Q     q     he        q   e
|-----------------|-----------------|-------------1---|-----------------|
|-1---------------|-----------------|-5-----3-----1---|-1---------------|
|-3---------------|----------------o|-5-----4-----2---|-3---------------|
|-3---------------|----------------o|-5-----5-----3---|-3-------------3-|
|-3---------------|-----------------|-3-----5-----3---|-3---------3-----|
|-----------------|-----------------|-3-----3-----1---|-----------------|

                    C/G   G           F                 Bbs2
    q   q   e e e   Q     he          w                 he        q   e
|-------------0-0-|-----------------|-1---------------|-----------------|
|-----------1-----|-5-----3---------|-1---------------|-1---------1-----|
|---0---3---------|-5-----4---------|-2---------------|-3-------------3-|
|-----------------|-5-----5---------|-3---------------|-3---------------|
|-----------------|-3-----5---------|-3---------------|-3---------------|
|-----------------|-3-----2---------|-1---------------|-----------------|

                    C/G   G     F     Bbs2
  q   e q   e q     Q     Q     q     w+
|-----------------|-------------1---|-----------------|-----------------|
|-------1---------|-5-----3-----1---|-1---------------|-----------------|
|-0---3-----3-0---|-5-----4-----2---|-3---------------|-----------------|
|-----------------|-5-----5-----3---|-3---------------|-----------------|
|-----------------|-3-----5-----3---|-3---------------|-----------------|
|-----------------|-3-----3-----1---|-----------------|-----------------|

|---------------------|
|---------------------|
5---------------------|
4---------------------|
|---------------------|
|---------------------|

Note:  tablature compressed below
                                              Heavily
                                              overdriven w/chorus
  -- guitar rests during synth bridge --      h+
|---------|---------|---------|---------|---------|---------|
|---------|---------|---------|---------|---------|---------|
4---------|---------|---------|---------|---------|---------|
4---------|---------|---------|---------|---------|---------|
|---------|---------|---------|---------|-----3---|---------|
|---------|---------|---------|---------|---------|---------|

                      Q  Q  q   Q  Q  q   Q  Q  q   Q  Q  q
|---------|---------|---------|---------|---------|---------|
|---------|---------|---------|---------|---------|---------|
|---------|---------|o--------|---------|---------|---------|
|---------|---------|o--------|---------|---------|---------|
|---------|---------|-4-----4-|-6--4--3-|-4-----4-|-6--4--3-|
|---------|---------|----4----|---------|----4----|---------|

  Q  Q  q   Q  Q  q   Q  Q  q   Q  Q  q
|---------|---------|---------|---------|
|---------|---------|---------|---------|
|---------|---------|---------|--------o|
|---------|---------|---------|--------o|
|-3-------|-3-------|-3-------|-3-------|
|----1--3-|----1--3-|----1--3-|----1--3-|

Note:  tablature normal width below

 Overdriven w/chorus
  e     q   e       q   e       e q   q   q     e     q     e     q   e
|-----------------|---------|-----------------|---------|-----------------|
|-----------------|---------|-----------------|---------|-----------------|
|-----------------2---------4-----------------2---------4-----------------|
|-5-----5---5-----4-5---5---4---5-5---5---5---4-5-----5-4---5-----5---5---|
|-7-----5---8-----|-5---7---|---5-7---8---5---|-7-----5-|---8-----5---7---|
|-----------------|---------|-----------------|---------|-----------------|

    e q   q   q
|-----------------|
|-----------------|
|-----------------|
|---5-5---5---5---|
|---5-7---8---5---|
|-----------------|

  Wide angle watcher...
  Repeat 3 times, electric w/clean tone & chorus, acoustic (Nashville
  tuned).
  C                                                   F     C   F
  q   e e e e   q   e e e e   q   e e e e   q   q     q   e q   e
|-0---0-0-0-0-|-0---0-0-0-0-|-0---0-0-0-0-|-0---0---|-1---1-----1-|B
|-1---1-1-1-1-|-1---1-1-1-1-|-1---1-1-1-1-|-1---1---|-1---1-1---1-|O
3o0---0-0-0-0-|-0---0-0-0-0-|-0---0-0-0-0-2-0---0---3-2---2-0---2-|T
4o2---2-2-2-2-|-2---2-2-2-2-|-2---2-2-2-2-4-2---2---4-3---3-2---3-|H
|-3---3-3-3-3-|-3---3-3-3-3-|-3---3-3-3-3-|-3---3---|-3---3-3---3-|
|-------------|-------------|-------------|---------|-------------|

  Bb      F           C   F   Bb      F
  q   q   q     q   e q   e   q   q   q
|-1---1---1---|-1---1-----1-|-1---1---1---|B
|-3---3---1---|-1---1-1---1-|-3---3---1---|O
|-3---3---2---|-2---2-0---2-|-3---3---2--o|T
|-3---3---3---|-3---3-2---3-|-3---3---3--o|H
|---------3---|-3---3-3---3-|---------3---|
|-------------|-------------|-------------|

Electric overdriven w/chorus
  e     q   e       q   e       e q   q   q     e     q
|-----------------|---------|-----------------|---------|E
|-----------------|---------|-----------------|---------|L
4-----------------2---------4-----------------2---------|E
4-5-----5---5-----4-5---5---4---5-5---5---5---4-5-----5-|C
|-7-----5---8-----|-5---7---|---5-7---8---5---|-7-----5-|
|-----------------|---------|-----------------|---------|
                                                        |
  C                                                     |
|-0-----0---0-----|-0---0---|---0-0---0---0---|-0-----0-|A
|-1-----1---1-----|-1---1---|---1-1---1---1---|-1-----1-|C
4-0-----0---0-----2-0---0---4---0-0---0---0---2-0-----0-|O
4-2-----2---2-----4-2---2---4---2-2---2---2---4-2-----2-|U
|-3-----3---3-----|-3---3---|---3-3---3---3---|-3-----3-|S
|-----------------|---------|-----------------|---------|

    e     q   e       e q   q   q     e     q   e       q   e
|-----------------|-----------------|-----------------|---------|E
|-----------------|-----------------|-----------------|---------|L
4-----------------|-----------------|-----------------2---------|E
4---5-----5---5---|---5-5---5---5-/-|-10----10--10----4-10--10--|C
|---8-----5---7---|---5-5---8---7-/-|-12----10--13----|-10--12--|
|-----------------|-----------------|-----------------|---------|
                                                                |
                                      F                         |
|---0-----0---0---|---0-0---0---0---|-1-----1---1-----|-1---1---|A
|---1-----1---1---|---1-1---1---1---|-1-----1---1-----|-1---1---|C
|---0-----0---0---|---0-0---0---0---|-2-----2---2-----2-2---2---|O
|---2-----2---2---|---2-2---2---2---|-3-----3---3-----4-3---3---|U
|---3-----3---3---|---3-3---3---3---|-3-----3---3-----|-3---3---|S
|-----------------|-----------------|-1-----1---1-----|-1---1---|

    e q   q   q     e     q   e       q   e       e q   q   q
|-----------------|-----------------|---------|-----------------|E
|-----------------|-----------------|---------|-----------------|L
4-----------------|-----------------2---------4-----------------|E
4---1010--10--10\-|-5-----5---5-----4-5---5---4---5-5---5---5---|C
|---1012--13--12\-|-7-----5---8-----|-5---7---|---5-7---8---7---|
|-----------------|-----------------|---------|-----------------|
                                                                |
                    C                                           |
|---1-1---1---1---|-0-----0---0-----|-0---0---|---0-0---0---0---|A
|---1-1---1---1---|-1-----1---1-----|-1---1---|---1-1---1---1---|C
4---2-2---2---2---|-0-----0---0-----2-0---0---4---0-0---0---0---|O
4---3-3---3---3---|-2-----2---2-----4-2---2---4---2-2---2---2---|U
|---3-3---3---3---|-3-----3---3-----|-3---3---|---3-3---3---3---|S
|---1-1---1---1---|-----------------|---------|-----------------|

  Q     Q     q     Q     q     q     Q     Q     q     Q     q     q
|-----------------|-----------------|-----------------|-----------------|
|-----------------|-----------------|-----------------|-----------------|
|o----------------|-----------------|-----------------|-----------------|
|o----------------|-6-----4-----3---|-----------------|-6-----4-----3\--|
|-4-----------4---|-----------------|-4-----------4---|-----------------|
|-------4---------|-----------------|-------4---------|-----------------|

  Q     Q     q     Q     Q     q     Q     Q     q     Q     Q     q
|-----------------|-----------------|-----------------|-----------------|
|-----------------|-----------------|-----------------|-----------------|
|-----------------|-----------------|-----------------|----------------o|
|-----------------|-----------------|-----------------|----------------o|
|-3---------------|-3---------------|-3---------------|-3---------------|
|-------1-----3---|-------1-----3---|-------1-----3---|-------1-----3---|

                        They seem oblivious...
  Repeat 4 times, clean tone w/chorus
  Db/F  Db/Gb       Db/F  Db/Gb       Db/F  Db/Gb       Db/F  Db/Gb
  e e e q   e q     e e e q   e q     e e e q   e q     e e e q   e q
|-----------------|-----------------|-----------------|-----------------|
|-----------------|-----------------|-----------------|-----------------|
|o----6-------6---|-----6-------6---|-----6-------6---|-----6-------6---|
|o--6-------6-----|---6-------6-----|---6-------6-----|---6-------6-----|
|-8-----9---------|-8-----9---------|-8-----9---------|-8-----9---------|
|-----------------|-----------------|-----------------|-----------------|

  C/E   C/F         C/E   C/F         C/E   C/F         C/E   C/F
  e e e q   e q     e e e q   e q     e e e q   e q     e e e q   e q
|-----------------|-----------------|-----------------|-----------------|
|-----------------|-----------------|-----------------|-----------------|
|-----5-------5---|-----5-------5---|-----5-------5---|-----5-------5--o|
|---5-------5-----|---5-------5-----|---5-------5-----|---5-------5----o|
|-7-----8---------|-7-----8---------|-7-----8---------|-7-----8---------|
|-----------------|-----------------|-----------------|-----------------|

  Guitar Solo, thick heavily overdriven tone with chorus & ambient reverb
                                                        h       h
  ww                                  q   Hh              1       r
|-----------------|-----------------|-11--13----------|(13^)---(13^)----|
|-14--------------|-----------------|-----------------|-----------------|
|-----------------|-----------------|-----------------|-----------------|
|-----------------|-----------------|-----------------|-----------------|
|-----------------|-----------------|-----------------|-----------------|
|-----------------|-----------------|-----------------|-----------------|

  H           e ew                    q   e he          e e H
|-12--------------|-----------------|-----------------|-12--------------|
|-------------15--|-----------------|-13--1511--------|---13------------|
|---------------12|-----------------|-----------------|-----12----------|
|-----------------|-----------------|-----------------|-----------------|
|-----------------|-----------------|-----------------|-----------------|
|-----------------|-----------------|-----------------|-----------------|

  wQ                      h       e   w                 q   q   q   sss
|-----------------|-----------------|-----------------|----------1---hp-|
|-----------------|-----------------|-----------------|-6---7--(7^)-676-|
|-----------------|-----------------|-6---------------|-----------------|
|-----------------|-------3-------4-|-----------------|-----------------|
|-4---------------|-----------------|-----------------|-----------------|
|-----------------|-----------------|-----------------|-----------------|

                                      eq                  e   Q       e
  h       q   q     he        Q        2                   r   2    (p)
|-----------------|--2-slow---------|-5^-slow---------|--(5^)-5^------0-|
|-5-------5---6---|-6^-rel----5-----|----bend---------|-----------------|
|-----------------|-----------------|-----------------|-----------------|
|-----------------|-----------------|-----------------|-----------------|
|-----------------|-----------------|-----------------|-----------------|
|-----------------|-----------------|-----------------|-----------------|

Note:  tablature expanded

  Q            q       e  S  S  S   S  S  S  S  S   e   e   e   e
|-13----------13------13--16-13-13|-13-16-13-13-13--16--13--16--13--|
|---------------------------------|---------------------------------|
|---------------------------------|---------------------------------|
|---------------------------------|---------------------------------|
|---------------------------------|---------------------------------|
|---------------------------------|---------------------------------|

  e   Q               e   e   e     h               e   Q
|-16--13--------------13----------|---2---------------2---r---------|
|-------------------------16--14--|-16^-------------16^-16^---------|
|---------------------------------|---------------------------------|
|---------------------------------|---------------------------------|
|---------------------------------|---------------------------------|
|---------------------------------|---------------------------------|

  q       h                         h               e   e   e   e
|p----------2-(slowly)----------2-|---2-------2---r-p---------2-----|
|-13-----[15^]---------------[15^]|[15^]---[15^-15^]13-----[15^]----|
|---------------------------------|---------------------------------|
|---------------------------------|---------------------------------|
|---------------------------------|---------------------------------|
|---------------------------------|---------------------------------|

  q       q       q       q         S  S  E     Q
|---2-------2-------2-------2-----|---2-r-p-------------------------|
|-15^-----15^-----15^-----15^-----|-15^15-13----13------------------|
|---------------------------------|---------------------------------|
|---------------------------------|---------------------------------|
|---------------------------------|---------------------------------|
|---------------------------------|---------------------------------|

  4/4 Repeat 4 times (tab expanded additionally for clarity)
  s   s   s   s   s   s   s   s   s   s   s   s   s   s   s   s
|----p---------------p---------------p---------------p------------|
|-18--14------14--18--14------14--18--14------14--18--14------14--|
|o--------16------**------16------**------16------**------16-----o|
|o---------------------------------------------------------------o|
|-----------------------------------------------------------------|
|-----------------------------------------------------------------|
** - possibly hammered on, not 100% sure either way

  s   s   s   s   s   s   s   s   s   s   s   s   s   s   s   s
|----p---------------p---------------p---------------p------------|
|-17--13------13--17--13------13--17--13------13--17--13------13--|
|-**------15------**------15------**------15------**------15------|
|-----------------------------------------------------------------|
|-----------------------------------------------------------------|
|-----------------------------------------------------------------|

  s   s   s   s   s   s   s   s   s   s   s   s   s   s   e
|----p---------------p---------------p---------------p------------|
|-17--13------13--17--13------13--17--13----------17--13----------|
|-**------15------**------15------**------15--15--**------15------|
|-----------------------------------------------------------------|
|-----------------------------------------------------------------|
|-----------------------------------------------------------------|

  E    E    E     e   s s s s s s   s s s S  e   e  e       qw+
|---------------------------------|---------------------------------|
|-15---13---15----17-13-1517131517|-13151713-15--17-13-------2------|
|---------------------------------|-------------------------9^------|
|---------------------------------|---------------------------------|
|---------------------------------|---------------------------------|
|---------------------------------|---------------------------------|

  Db/F    Db/Gb     Db/F    Db/Gb     Db/F    Db/Gb     Db/F    Db/Gb
  q   e e q   e e   q   e e q   e e   q   e e q   e e   q   e e q   q
|-----------------|-----------------|-----------------|-----------------|
|-----6-6-----6-6-|-----6-6-----6-6-|-----6-6-----6-6-|-----6-6-----6---|
|-----6-6-----6-6-|-----6-6-----6-6-|-----6-6-----6-6-|-----6-6-----6---|
|-6---6-6-6---6-6-|-6---6-6-6---6-6-|-6---6-6-6---6-6-|-6---6-6-6---6---|
|-8-------9-------|-8-------9-------|-8-------9-------|-8-------9-------|
|-----------------|-----------------|-----------------|-----------------|

  C/E     C/F       C/E     C/F       C/E     C/F       C/E     C/F
  q   e e q   e e   q   e e q   e e   q   e e q   e e   q   e e q   q
|-----------------|-----------------|-----------------|-----------------|
|-----5-5-----5-5-|-----5-5-----5-5-|-----5-5-----5-5-|-----5-5-----5---|
|-----5-5-----5-5-|-----5-5-----5-5-|-----5-5-----5-5-|-----5-5-----5---|
|-5---5-5-5---5-5-|-5---5-5-5---5-5-|-5---5-5-5---5-5-|-5---5-5-5---5---|
|-7-------8-------|-7-------8-------|-7-------8-------|-7-------8-------|
|-----------------|-----------------|-----------------|-----------------|

  Heavily overdriven w/chorus
                                The   fo -  cus   is    sharp in    the
                                      Bbs4
  Q     Q     q     Q     Q     q     Q                 Q     Q
|-----------------|-----------------|-9-----9---------|-9-----9---------|
|-----------------|-----------------|-9-----9---------|-9-----9---------|
|-----------------|-----------------|-11----11--------|-11----11--------|
|-----------------|-----------------|-11----11--------|-11----11--------|
|-4-----------4---|-6-----4-----3---|-11----11--------|-11----11--------|
|-------4---------|-----------------|-9-----9---------|-9-----9---------|

  ci  -   ty
          Flanger on
          h+
|---------9-------|-----------------|-----------------|-----------------|
|---------9-------|-----------------|-----------------|-----------------|
|---------11------|-----------------|-----------------|-----------------|
|---------11------|-----------------|-----------------|-----------------|
|---------11------|-----------------|-----------------|-----------------|
|---------9-------|-----------------|-----------------|-----------------|

  Continue to hold the chord except the note on G string which is
  released to the 10th fret to enable the "harp" harmonics which are
  sounded (shown in brackets "{}" 12 frets higher).  This may also
  be from feedback - I'm not 100% sure.

                    Fade
                    h       h
|-----------------|-----------------|
|-----------------|-----------------|
|-----------------|{22}-------------|
|-----------------|-----------------|
|-----------------|--------{23}-----|
|-----------------|-----------------|

Добавлено: 15.04.2012
Другие материалы по этой песне:
  • Аккорды и текст

Страница создана 15.04.2012
http://primanota.ru/rush/the-cameras-eye-chords.htm
Привет, Гость.
Предлагаем пройти революционный курс по гитаре.
Подарок от PrimaNota.Ru, забирай!