PrimaNota.ru - самый крупный в мире бесплатный архив песенных текстов, аккордов, табулатур и нот


Rush - The Fountain Of Lamneth Didacts And Narpets - таба, видео

Регистрация Запомнить меня
Войти через:  Facebook Google Twitter Vk Yandex Mail.ru

Rush - The Fountain Of Lamneth Didacts And Narpets - таба, видео

Печатать
Просмотров: 93
Berzerk Neil
e:----------------|--------------|--------------|--------------------|
B:----------------|--------------|--------------|--------------------|
G:----------------|--9------7----|--------------|--9----9--7---------|
D:----------------|--9------7----|--5------3----|--9----9--7---------|
A:----------------|--7------5----|--5------3----|--7----7--5---------|
E:----------------|--------------|--3------1----|--------------------|
                     Stay!  Go!     Work!  No!     Think!  Live!

                                                        Berzerk Neil
e:----------------|-----------------|-----------------|--------------|
B:----------------|-----------------|-----------------|--------------|
G:----------------|--9------7-------|-----------------|--------------|
D:--5------3------|--9------7-------|--5------3-------|--------------|
A:--5------3------|--7------5-------|--5------3-------|--------------|
E:--3------1------|-----------------|--3------1-------|--------------|
    Earn!  Give!     Wait!  Fight!     Left!  Right!

e:---------------------------|---------------------------------------|
B:--------6-----8-----10--6--|---------------------------------------|
G:--9--7--5--5--7--7--9---5--|---------------------------------------|
D:--9--7--3--5--5--7--7---3--|---------------------------------------|
A:--7--5-----3-----5---------|---------------------------------------|
E:---------------------------|---------------------------------------|
                                LISTEN!
Добавлено: 01.06.2012
Другие материалы по этой песне:
  • Аккорды и текст

Страница создана 01.06.2012
http://primanota.ru/rush/the-fountain-of-lamneth-didacts-and-narpets-chords.htm
Привет, Гость.
Предлагаем пройти революционный курс по гитаре.
Подарок от PrimaNota.Ru, забирай!