PrimaNota.ru - самый крупный в мире бесплатный архив песенных текстов, аккордов, табулатур и нот


Rush - The Garden - текст песни, таба, бас-таба, видео

Регистрация Запомнить меня
Войти через:  Facebook Google Twitter Vk Yandex Mail.ru

Rush - The Garden - текст песни, таба, бас-таба, видео

Печатать
Просмотров: 82
This is my first tab. I noticed The Garden wasn't on here yet and hope this will spark a 
more accurate tab to come. Feel free to make some improvements.

Chords:

F
E|-1-
B|-1-
G|-2-
D|-3-
A|-3-
E|-1-

D#sus2
E|-6-
B|-6-
G|-8-
D|-8-
A|-6-
E|---

A#m
E|-6-
B|-6-
G|-6-
D|-8-
A|-8-
E|-6-

This intro part may be on bass but here's a similar version for guitar.

E|-----------------------------------------------------------|
B|---------------1-------------------------------------------|
G|---2---3---2-------2---3---2-----2---3---2---0---0---0---0-|
D|-3---3---3---3---3---3---3---3-3---3---3---3---3---3---3---|
A|-----------------------------------------------------------|
E|-----------------------------------------------------------|

E|-----------------------------------------------------------|
B|---------------1-------------------------------------------|
G|---2---3---2-------2---3---2-----2---3---2---0---0---0---0-|
D|-3---3---3---3---3---3---3---3-3---3---3---5---5---5---5---|
A|-----------------------------------------------------------|
E|-----------------------------------------------------------|


   F            D#sus2       A#m       F
E|-1--1-1-------6--6-6-------6--6-6----1-1--1-|
B|-1--1-1-------6--6-6-------6--6-6----1-1--1-|
G|-2--2-2-------8--8-8-------6--6-6----2-2--2-|
D|-3--3-3-------8--8-8-------8--8-8----3-3--3-|
A|-3--3-3-------6--6-6-------8--8-8----3-3--3-|
E|-1--1-1--------------------6--6-6----1-1--1-|


Chorus
Starts at "The measure of a life, is a measure of love and respect."

E|---------------------------------------------------------------------------------|
B|---3-4-3-----3-4-3-----3-4-3-----3-4-3-----3-4-3-----3-4-3-----3-4-3-----3-4-3---|
G|---------3---------3---------3---------3---------3---------3---------3---------3-|
D|-----------------------------------------1---------1-----------------------------|
A|---------------------1---------1-----------------------------3---------3---------|
E|-3---------3---------------------------------------------------------------------|

x2 then


E|---------------------------------------------------------------------------------|
B|---3-4-3-----3-4-3-----3-4-3-----3-4-3-----3-4-3-----3-4-3-----3-4-3-----3-4-3---|
G|---------3---------3---------3---------3---------3---------3---------3---------3-|
D|-----------------------------------------1---------0-----------------------------|
A|---------------------1---------1-----------------------------3---------3---------|
E|-3---------3---------------------------------------------------------------------|
Добавлено: 16.06.2013
Другие материалы по этой песне:

Страница создана 16.06.2013
http://primanota.ru/rush/the-garden-chords.htm
Привет, Гость.
Предлагаем пройти революционный курс по гитаре.
Подарок от PrimaNota.Ru, забирай!