PrimaNota.ru - самый крупный в мире бесплатный архив песенных текстов, аккордов, табулатур и нот


Rush - Hope - таба, видео

Регистрация Запомнить меня
Войти через:  Facebook Google Twitter Vk Yandex Mail.ru

Rush - Hope - таба, видео

Печатать
Просмотров: 146
Авторы музыки: Alex Lifeson

Gtr I (DADAAD - 12 string guitar) - Hope 
Tab by Michael Robbins
Song by the great Alex Lifeson 

 3/4
  Gtr I
  
|---------------0-0-------------------------0-----0-0-0-0-0-0-0-0-0-0---0---|
|---------------0-0-------0---------------0-0-----0-0-0-0-0-0-0-0-0-0---0---|
|---------------0-0-2-3-2-0---------0---0-0-0-----0-0-----------0-0-0---0---|
|---------------0-0---------3-2-3-2-0---0-0-0---------2-2-3-2-0-------------|
|-----0-3-3-/5------------------------3-------2-3---------------3-2-3-5-5---|
|-0-3-----------------------------------------------------------------------|


|-0-0-0-0-0-----0-0-0-----0-0-0---0--0----|
|-0-0-0-0-0-----0-0-0-----0-0-0---0--0----|
|-0-2-3-3-3-2-0-3-3-3-2-0-3-3-3-2-3-/5----|
|-0-0-0-0-0-----0-0-0-----0-0-0---0--0----|
|-----------------------------------------|
|-----------------------------------------|


 
|-0-0-0-0-0-----0-0-0-----0-0-0---0--0----|
|-0-0-0-0-0-----0-0-0-----0-0-0---0--0----|
|-0-2-3-3-3-2-0-3-3-3-2-0-3-3-3-2-3-/5----|
|-0-0-0-0-0-----0-0-0-----0-0-0---0--0----|
|-----------------------------------------|
|-----------------------------------------|


 
|------0---0--0-------0--0--0---0---0--0--0--0--0----0--0----|
|------0---0--0-------0--0--0---0---0--0--0--0--0----0--0----|
|------0---0--0-------0--0--0---4--/0--0--4--0--4-/5-5--4----|
|-0----4---5--4-------2--4--2---4---4-----4--2--2----2--2----|
|-3-/5-5---5--5--2-/4-4--4--4---2---2-----2--0--0----0--0----|
|------0---0--0----------------------------------------------|



|-0--0--0--0--0-0---0--0-0-0-0----|
|-0--0--0--0--0-0---0--0-0-0-0----|
|-0--0--0--0--0-0---0--0-0-0-0----| Go back to beginning and play first 3 rows
|-5--4--4-/5--4-0---2--2-4-0-2----|
|-5--5--5--5--5-5---0--0-0-0-0----|
|-5--5--5--5--5-5---2--2-4-0-2----|


|------0-0-0--0--0----------0--0--0-0--0--0----0-0----|
|------0-0-0--0--0----------0--0--0-0--0--0----0-0----|
|------0-0-0--0--0----0--0--4--0--0-4--0--4-/5-5-4----| Repeat row 5 and then go to row 7
|-0----4-5-4--2--4-/2-0-/2--4--4----4--2--2----2-2----|
|-3-/5-5-5-5--4--4----4--4--2--2----2--0--0----0-0----|
|------0-0-0------------------------------------------|


 
|----------------0--0-0-0--0-0-0--0--0--0-------0--0--0--0----|
|----------------0--0-0-0--0-0-0--0--0--0-------0--0--0--0----|
|----------------0--0-0-0--0-0-0--3--5--0--0--0-0--3--5--0----|
|-----------0----0--0-2-0--0-2-0--3--5--0--5-/7-7--3--5--0----|
|------0-/3-3-/5-0--0-0-0--0-0-0--3--5--0----------3--5--0----|
|-0-/3-----------0--0-0-0--0-0-0--3--5--0----------3--5--0----|


 
|-0--0--0--0-0--0-0-0-------0-0--0-0--0--0--0--------------|
|-0--0--0--0-0--0-0-0-------0-0--0-0--0--0--0----0--0-0----|
|-3-/5--5-/3-0--3-5-0-------0-0--0-0--3--5--0----0--0-0----|
|------------0--3-5-0-------0-3-/0-0--3--5--0--5-7--5-7----|
|---------------3-5-0--3-/5-0------0--3--5--0--0-0---------|
|---------------3-5-0--0--0-0------0--3--5--0--0-0---------|


 
|-----------------------------0----|
|-----------------------------0----|
|-0-0--0----------------------0----|
|-0-0--7---5--7---------------0----|
|-3-5--5----------------0-/3--0----|
|-0-0--0-----------0-/3-------0----|

Добавлено: 23.04.2012
Другие материалы по этой песне:

Страница создана 11.03.2012
http://primanota.ru/rush/hope-chords.htm
Привет, Гость.
Предлагаем пройти революционный курс по гитаре.
Подарок от PrimaNota.Ru, забирай!