PrimaNota.ru - самый крупный в мире бесплатный архив песенных текстов, аккордов, табулатур и нот


Rush - Limelight - аккорды и текст, таба, бас-таба, драм-таба, видео

Регистрация Запомнить меня
Войти через:  Facebook Google Twitter Vk Yandex Mail.ru

Rush - Limelight - аккорды и текст, таба, бас-таба, драм-таба, видео

Печатать
Просмотров: 357
Авторы музыки: Geddy Lee, Alex Lifeson
Авторы текста: Neil Peart
Limelight
Rush
Artist: Rush
Song: Limelight
Album: Moving Pictures


B:   799800 or x24400 or x24442
Abm: 466400 or 466444
F#:  244300 or 244322
E:   022100

Intro:
e|--------------------------------|     e|---------------|
B|--------------------------------|     B|---------------|
G|----------------4-----4------2--| x3  G|---------------|
D|------------2---4-----4------2--|     D|------------2--|
A|-------0-4------2-----2------0--|     A|-------0-4-----|
E|--0-4---------------------4-----|     E|--0-4----------|

Riff:
   B      A      E
e|---------------------------------|
B|---------------------------------|
G|--4-----2--2---------------------|
D|--4-----2--2---2-----------------|
A|--2-----0--0---2------0-4-0------|
E|---------------0--2-4------------|


B           Abm
Living on a lighted stage
  F#             E
Approaches the unreal
    F#                  E
For those who think and feel
   B               Abm
In touch with some reality
  F#              B    A E   B A E
Beyond the gilded cage

B              Abm
Cast in this unlikely role,
F#              E
Ill-equipped to act
     F#           E
With insufficient tact
B               Abm
One must put up barriers
   F#             B    A E   B A E
To keep oneself intact

Chorus:
Abm           E
Living in the limelight
    F#        Abm
The universal dream
    E                 F#    Abm
For those who wish to seem
E                 F#
Those who wish to be
     Abm           E
Must put aside the alienation
F#              Abm
Get on with the fascination
    E
The real relation
    F#           Abm
The underlying theme

B A E x2

B           Abm
Living in a fisheye lens
       F#            E
Caught in the camera eye
  F#               E
I have no heart to lie
  B               Abm
I can't pretend a stranger
     F#           B    A E   B A E
Is a long-awaited friend

B                 Abm
All the world's indeed a stage
    F#             E
And we are merely players
   F#              E
Performers and portrayers
B              Abm
Each another's audience
   F#              B    A E   B A E
Outside the gilded cage

Chorus

Solo: Abm E F# Abm

Chorus
Добавлено: 07.06.2012
Другие материалы по этой песне:

Страница создана 09.03.2012
http://primanota.ru/rush/limelight-chords.htm
Привет, Гость.
Предлагаем пройти революционный курс по гитаре.
Подарок от PrimaNota.Ru, забирай!