PrimaNota.ru - самый крупный в мире бесплатный архив песенных текстов, аккордов, табулатур и нот


Rush - 2112 (album) - таба, видео

Регистрация Запомнить меня
Войти через:  Facebook Google Twitter Vk Yandex Mail.ru

Rush - 2112 (album) - таба, видео

Печатать
Просмотров: 124
                                Rush
                                2112
                                1976

Hello! I'm Zach and this is a compilation of tabs for the album “2112” by Rush. All the 
goes to the following tabbers: rush r30 2004, some unregistered person, thelordofguitar, 
is GOD2112, Jimmy Pena, and crishell.

2112 Track List
1. 2112
   I. Overture
  II. Temples of Syrinx
 III. Discovery
  IV. Presentation
   V. Oracle: The Dream
  VI. Soliloquy
 VII. Grand Finale
2. A Passage to Bangkok
3. The Twilight Zone
4. Lessons
5. Tears
6. Something for Nothing

1. 2112

              2112 - I OVERTURE
                               As recorded by Rush
                           (From the 1976 Album 2112)

Words by Neil Peart Music by Lee/Lifeson
Transcribed by Michael Robinson

          B5                   A5                   G5                   D5
      x 2 4 4 0 2          x 0 2 2 x 0          3 5 5 0 3 3          x x 0 2 3 5

          E5                   Bm                    G                    A
      0 2 2 4 0 0          x 2 4 4 3 2          3 5 5 4 3 3          5 7 7 6 5 5

         Dopen                D/C#                 Aopen               Bmopen
      x 5 x 2 3 2          x 4 x 2 3 2          x 0 2 2 2 x          x 2 4 4 3 x

         Esus2                Dsus2                Csus2
      0 7 9 9 7 7          x 5 7 7 5 5          x 3 5 5 3 3

Gtr I (E A D G B E) - 'Electric Guitar I'
Gtr II (E A D G B E) - 'Electric Guitar II'
Gtr III (E A D G B E) - 'Acoustic Guitar'
Gtr IV (E A D G B E) - 'Electric Guitar III'
Gtr V (E A D G B E) - 'Electric Guitar IV'

 Synth Intro (00Section I (00:45)
  Q=134
                           E   Am                 CaGdD
 4/4
  Gtr I
  Wx13           H    Q  E E   E E Q  H      Q  E E E E +Q
|-------------||-------------|-------------|----------2-(2)--|
|-------------||-------------|-1-----------|------3-3-3-(3)--|
|-------------||-----------1-|-2-----------|------0-0-2-(2)--|
|-------------||-----------2-|-2-----------|------2-0-0-(0)--|
|-------------||-----------2-|-0-----------|------3-2--------|
|-------------||-----------0-|-------------|--------3--------|


         Cadd9       Am           E   Am          CaddG           E
 5/4                4/4
  +H     E E Q  Q    E E E E Q  E E   E E Q  Q  E E   E E Q  Q  E E
|-(2)--------------|----------------|---------------|----------------|
|-(3)----3---------|-1-1-1----------|-1-----------3-|-3--------------|
|-(2)----0---------|-2-2-2--------1-|-2-----------0-|-0-----------1--|
|-(0)----2---------|-2-2-2--------2-|-2-----------2-|-0-----------2--|
|--------3---------|-0-0-0--------2-|-0-----------3-|-2-----------2--|
|------------------|--------------0-|---------------|-3-----------0--|


  Am          CaddG D     CaGdD     E   Am                        Cadd9
  E E Q  Q  E E   E E +E  E E E +E  E   E S  E  S  E  S  E  S  E  E
|---------------|---2-(2)-----2-(2)---|------------------------------|
|-1-----------3-|-3-3-(3)-3-3-3-(3)---|-1---(1)---(1)---(1)---(1)-3--|
|-2-----------0-|-0-2-(2)-0-0-2-(2)-1-|-2---(2)---(2)---(2)---(2)-0--|
|-2-----------2-|-0-0-(0)-2-0-0-(0)-2-|-2---(2)---(2)---(2)---(2)-2--|
|-0-----------3-|-2-------3-2-------2-|-0---(0)---(0)---(0)---(0)-3--|
|---------------|-3---------3-------0-|------------------------------|


  G                         E   Am                        CaddG D            E
  E S  E  S  E  S  E  S  E  E   E S  E  S  E  S  E  S  E  E   E E +Q   +Q.   E
|-----------------------------|-----------------------------|---2-(2)--(2)-----|
|-3---(3)---(3)---(3)---(3)---|-1---(1)---(1)---(1)---(1)-3-|-3-3-(3)--(3)-----|
|-0---(0)---(0)---(0)---(0)-1-|-2---(2)---(2)---(2)---(2)-0-|-0-2-(2)--(2)---1-|
|-0---(0)---(0)---(0)---(0)-2-|-2---(2)---(2)---(2)---(2)-2-|-0-0-(0)--(0)---2-|
|-2---(2)---(2)---(2)---(2)-2-|-0---(0)---(0)---(0)---(0)-3-|-2--------------2-|
|-3---(3)---(3)---(3)---(3)-0-|-----------------------------|-3--------------0-|


  Am                        CaddG                         E   Am    G D     Cadd9
  E S  E  S  E  S  E  S  E  E   E S  E  S  E  S  E  S  E  E   E E E E E E E E
|-----------------------------|-----------------------------|---------2-------|
|-1---(1)---(1)---(1)---(1)-3-|-3---(3)---(3)---(3)---(3)---|-1-----3-3-----3-|
|-2---(2)---(2)---(2)---(2)-0-|-0---(0)---(0)---(0)---(0)-1-|-2-----0-2-----0-|
|-2---(2)---(2)---(2)---(2)-2-|-0---(0)---(0)---(0)---(0)-2-|-2-----0-0-----2-|
|-0---(0)---(0)---(0)---(0)-3-|-2---(2)---(2)---(2)---(2)-2-|-0-----2-------3-|
|-----------------------------|-3---(3)---(3)---(3)---(3)-0-|-------3---------|


  G D     CaGdD         G    D    C    G      D     Dsus4D
                                             2/4        4/4
  E E +E  E E E +E  E    E E  E E  E E  E E    Q.    E    W           +W
|---2-(2)-----2-(2)---|-------2----0--------|--2-----3-|--2--------|--(2)----|
|-3-3-(3)-3-3-3-(3)---|--3----3----1----3---|--3-----3-|--3--------|--(3)----|
|-0-2-(2)-0-0-2-(2)---|--0----2----0----0---|--2-----2-|--2--------|--(2)----|
|-0-0-(0)-2-0-0-(0)-0-|--0----0----2----0---|--0-----0-|--0--------|--(0)----|
|-2-------3-2-------0-|--2---------3----2---|----------|-----------|---------|
|-3---------3---------|--3--------------3---|----------|-----------|---------|
|
| Gtr II
| W                      E E  E E  E E  E E    Q.    E    W           +W
|---------------------|-15---14---12---15---|----------|-----------|---------|
|---------------------|---------------------|-15-------|-----------|---------|
|---------------------|---------------------|-------14-|-----------|---------|
|---------------------|---------------------|----------|-12--------|-(12)----|
|---------------------|---------------------|----------|-----------|---------|
|---------------------|---------------------|----------|-----------|---------|


  C    F    C    D      A     D    A                     A5
                       2/4        4/4
   E E  E E  E E  E E    Q.    E    W           +H.      Q
|--0----1----0----2---|--------2-|-----------|---------------||
|--1----1----1----3---|--2-----3-|--2--------|--(2)----------||
|--0----2----0----2---|--2-----2-|--2--------|--(2)----------||
|--2----3----2----0---|--2-----0-|--2--------|--(2)----------||
|--3----3----3--------|--0-------|--0--------|--(0)------7\--||
|---------------------|----------|-----------|-----------5\--||
|
|  E E  E E  E E  E E    Q.    E    W           +H.      Q
|---------------------|----------|-----------|---------------||
|-13--------13---15---|----------|-----------|---------------||
|------12-------------|-14-------|-----------|---------------||
|---------------------|-------14-|-----------|---------------||
|---------------------|----------|-12--------|-(12)----------||
|---------------------|----------|-----------|---------------||


 Section II (01:31)
  B5                  A5  G5                D5    A5          E5    D5
  E S S E S S E S S E E   E S S E S S E S S E E   E S S E S S E S S E E
|-----------------------|-----------------------|------------------------|
|-----------------------|-----------------------|------------------------|
|-----------------------|-----------------------|------------------------|
|-4-4-4-4-4-4-4-4-4-4---|-------------------7-7-|-------------9-9-9-7-7--|
|-2-2-2-2-2-2-2-2-2-2-7-|-5-5-5-5-5-5-5-5-5-5-4-|-7-7-7-7-7-7-7-7-7-5-4--|
|---------------------5-|-3-3-3-3-3-3-3-3-3-----|-5-5-5-5-5-5------------|
|
| E S S E S S E S S E E   E S S E S S E S S E E   E S S E S S E E   E E
|-----------------------|-------------------5-5-|-------------7-----5-5--|
|-7-7-7-7-7-7-7-7-7-7-5-|-------------------3-2-|-5-5-5-5-5-5-5-----3-2--|
|-4-4-4-4-4-4-4-4-4-4-2-|-7-7-7-7-7-7-7-7-7-----|-2-2-2-2-2-2------------|
|-----------------------|-5-5-5-5-5-5-5-5-5-----|------------------------|
|-----------------------|-----------------------|------------------------|
|-----------------------|-----------------------|------------------------|


  B5            D5            B5                  A5  G5                D5
  Gtr III
  W                           E S S E S S E S S E E   E S S E S S E S S E E
                              | | | | | | | | | | |   | | | | | | | | | | |
                              / / / / / / / / / / /   / / / / / / / / / / o

  E S S E S S E  E  +Q        E S S E S S E S S E E   E S S E S S E S S E E
|-------------------------||------------------------|-----------------------|
|-------------------------||o-----------------------|-----------------------|
|----------------7--(7)\--||------------------------|-----------------------|
|-4-4-4-4-4-4-4--7--(7)\--||--4-4-4-4-4-4-4-4-4-4---|-------------------7-7-|
|-2-2-2-2-2-2-2--5--(5)\--||o-2-2-2-2-2-2-2-2-2-2-7-|-5-5-5-5-5-5-5-5-5-5-4-|
|-------------------------||----------------------5-|-3-3-3-3-3-3-3-3-3-----|
|
| E S S E S S E  E  +Q        E S S E S S E S S E E   E S S E S S E S S E E
|-------------------------||------------------------|-------------------5-5-|
|-7-7-7-7-7-7-7-10-(10)\--||o-7-7-7-7-7-7-7-7-7-7-5-|-------------------3-2-|
|-4-4-4-4-4-4-4--7--(7)\--||--4-4-4-4-4-4-4-4-4-4-2-|-7-7-7-7-7-7-7-7-7-----|
|----------------7--(7)\--||------------------------|-5-5-5-5-5-5-5-5-5-----|
|-------------------------||o-----------------------|-----------------------|
|-------------------------||------------------------|-----------------------|


                         1.,2.                       3.
  A5          E5    D5    B5            D5            B5            A
  E S S E S S E S S E E   E S S E S S E  E  +Q        E E Q   H
  | | | | | | | | | | |   | | | | | | |  |   |        |
  / / / / / / / / / / o   / / / / / / /  /   /        /

  E S S E S S E S S E E   E S S E S S E  E  +Q        E E E E E E E E
|-----------------------|--------------------------||-----------------||
|-----------------------|-------------------------o||-----------------||
|-----------------------|----------------7--(7)\---||---------------2-||
|-------------9-9-9-7-7-|-4-4-4-4-4-4-4--7--(7)\---||-4-------------2-||
|-7-7-7-7-7-7-7-7-7-5-4-|-2-2-2-2-2-2-2--5--(5)\--o||-2-------------0-||
|-5-5-5-5-5-5-----------|--------------------------||---0-2-3-5-3-0---||
|
| E S S E S S E E   E E   E S S E S S E  E  +Q        E E E E E E E E
|-------------7-----5-5-|--------------------------||-----------------||
|-5-5-5-5-5-5-5-----3-2-|-7-7-7-7-7-7-7-10-(10)\--o||-7---------------||
|-2-2-2-2-2-2-----------|-4-4-4-4-4-4-4--7--(7)\---||-4-------------2-||
|-----------------------|----------------7--(7)\---||---------------2-||
|-----------------------|-------------------------o||---------------0-||
|-----------------------|--------------------------||---0-2-3-5-3-0---||


   Section III (01:59)
           Bm/A           D      Amaj7          A      Bm/A      D
    +W                    +W                    +W
||----------------------|---------------------|--------------------|
||o---------------------|---------------------|--------------------|
||--(2)-----------------|-(2)-----------------|-(2)----------------|
||--(2)-----------------|-(2)-----------------|-(2)----------------|
||o-(0)-----------------|-(0)-----------------|-(0)----------------|
||----------------------|---------------------|--------------------|
|
|   +Q   E E E E +E   E    Q   E E E E +E   E    Q   E E E E +E  E
||----------------------|---------------------|--------------------|
||o--------3---3-(3)\---|--7-----5---5-(5)\---|--------3---3-(3)-7-|
||--(2)----4---4-(4)\---|--7-----6---6-(6)\---|--2-----4---4-(4)-7-|
||--(2)----4---4-(4)\---|--7-----6---6-(6)\---|--2-----4---4-(4)-7-|
||o-(0)----0---0-(0)--5-|--------0---0-(0)----|--0-----0---0-(0)---|
||--------------------5-|-------------------5-|--------------------|


                  A                Bm/A
  +E  E E E E E E E         +W
|--------------------||-||---------------------|
|-------------------o||-||o--------------------|
|-(2)-------------2--||-||--(2)----------------|
|-(2)-------------2--||-||--(2)----------------|
|-(0)-------------0-o||-||o-(0)----------------|
|-----0-2-3-5-3-0----||-||---------------------|
|
|  E  E E E E E E E         +Q   E E E E +E  E
|--------------------||-||---------------------|
|--7----------------o||-||o--------3---3-(3)---|
|--7--------------2--||-||--(2)----4---4-(4)---|
|--7--------------2--||-||--(2)----4---4-(4)---|
|-----------------0-o||-||o-(0)----0---0-(0)-5-|
|-----0-2-3-5-3-0----||-||-------------------5-|


  D      Amaj7         A    Bm/A      D
  +H.          +E  E   W
|--------------------|------------------|
|--------------------|------------------|
|-(2)----------(2)-2-|-2----------------|
|-(2)----------(2)-2-|-2----------------|
|-(0)----------(0)-0-|-0----------------|
|--------------------|------------------|
|
|  Q   E E E E +E  E   Q  E E E E +E  E
|--------------------|------------------|
|--7-----5---5-(5)---|------3---3-(3)-7-|
|--7-----6---6-(6)---|-2----4---4-(4)-7-|
|--7-----6---6-(6)---|-2----4---4-(4)-7-|
|--------0---0-(0)---|-0----0---0-(0)---|
|------------------5-|------------------|


  1.                   2.
                  A                     B
  +E  E E E E E E E     +E  E E E E E E E   +Q   E E Q  E E   H.      Q
|--------------------||-----------------2-|-(2)----2-2----2-|-2-----------|
|-------------------o||-----------------4-|-(4)----4-4----4-|-4-----------|
|-(2)-------------2--||-(2)-------------4-|-(4)----4-4----4-|-4-----------|
|-(2)-------------2--||-(2)-------------4-|-(4)----4-4----4-|-4-----------|
|-(0)-------------0-o||-(0)-------------2-|-(2)----2-2----2-|-2-----------|
|-----0-2-3-5-3-0----||-----0-2-3-5-3-0---|-----------------|-------------|
|
|  E  E E E E E E E      E  E E E E E E E   +Q   E E Q  E E   H.      Q
|--------------------||-----------------2-|-(2)----2-2----2-|-2-----------|
|--7----------------o||--7--------------4-|-(4)----4-4----4-|-4-----------|
|--7--------------2--||--7--------------4-|-(4)----4-4----4-|-4-----------|
|--7--------------2--||--7--------------4-|-(4)----4-4----4-|-4-----------|
|-----------------0-o||-----------------2-|-(2)----2-2----2-|-2-----------|
|-----0-2-3-5-3-0----||-----0-2-3-5-3-0---|-----------------|-------------|


                                    1.                    2.
    Bm         G          A          DopD/C#  AoBmopen     DopD/C#  Aopen
                                                          2/4
    Gtr III
    W          W          W          E. S +E  E E E Q      E. S +E  E
    |          |          |          |  |  |  | |          |  |  |  |
    /          /          /          /  /  /  / /          /  /  /  /

    Gtrs I, II
    W          W          W          E. S +E  E E E Q      E. S +E  E
||--2--------|----------|----------|-2--2-(2)-----------||-2--2-(2)----||
||o-3--------|-3--------|-5--------|-3--3-(3)-2-3------o||-3--3-(3)-2--||
||--4--------|-4--------|-6--------|-2--2-(2)-2-4-------||-2--2-(2)-2--||
||--4--------|-5--------|-7--------|----------2-4-------||----------2--||
||o-2--------|-5--------|-7--------|-5--4-(4)-0-2------o||-5--4-(4)-0--||
||-----------|-3--------|-5--------|--------------------||-------------||


   Section IV (02:45)
    Bm
   4/4
    Gtr I
    E E E E E E E E    E  E E E E E E E
||------------------|-------------------|
||o-----------------|-------------------|
||------------------|-------------------|
||------------------|-------------------|
||o-----------------|-------------------|
||----0-2-3-5-3-0-2-|-----0-2-3-5-3-0-2-|
|
|   Gtr II
|   Q   H       E E   +E  E H       E E
||--2-------------2-|-(2)-------------2-|
||o-3-------------3-|-(3)-------------3-|
||--4-------------4-|-(4)-------------4-|
||--4-------------4-|-(4)-------------4-|
||o-2-------------2-|-(2)-------------2-|
||------------------|-------------------|


                        D/A    A  E/B
   E  E E E E E E E   E E +Q   Q  Q
|-------------------|------------------||
|-------------------|-----------------o||
|-------------------|---7-(7)-----9----||
|-------------------|---7-(7)--7--9----||
|-------------------|---5-(5)--7--7---o||
|-----0-2-3-5-3-2---|---5-(5)--5--7----||
|
| +E  E Q   H         E E +Q   Q  Q
|-(2)---------------|---2-(2)--0--4----||
|-(3)---------------|---3-(3)--2--5---o||
|-(4)---------------|---2-(2)--2--4----||
|-(4)---------------|---0-(0)--2--2----||
|-(2)---------------|---0-(0)--0--2---o||
|-------------------|------------------||


  A5                Gsus2               F                        C5 G5    C5
  PM---------------------------------------------------------|
  E E E E E E E E   E E E E  E  E E E   Q.   E E E E E   E E E E E. S +E  E
|-0---------------|-------------------|----------------|---------------------||
|-----------------|-------------------|----------------|---------------------||
|-2-2-2-2-2-2-2---|-------------------|-2----2-2-2-2-2-|-2-2-2---5--------5--||
|-2-2-2-2-2-2-2---|-0-0-0-0--0--0-0---|-3----3-3-3-3-3-|-3-3-3---5--5-(5)-5--||
|-0-0-0-0-0-0-0-0-|-0-0-0-0--0--0-0-0-|-3----3-3-3-3-3-|-3-3-3---3--5-(5)-3--||
|---------------0-|-3-3-3-3--3--3-3-0-|-1----1-1-1-1-1-|-1-1-1------3-(3)----||
|
| E E Q   E E E E   H       +E  E E E   Q.   E E E E E   E E E E H
|-5---------5-5-5-|-3-------(3)-3-3-0-|-1----1-1-1-1-1-|-1-1-1---------------||
|-5---------5-5-5-|-3-------(3)-3-3-0-|-1----1-1-1-1-1-|-1-1-1---------------||
|-----------------|-------------------|----------------|---------------------||
|-----------------|-------------------|----------------|---------------------||
|-----------------|-------------------|----------------|---------------------||
|-----------------|-------------------|----------------|---------------------||


 Section V (03:05)
  Am7                  C/G
  Gtr I
  E   E E E +E  E Q    Q    E E +E    E E E
|---------0-(0)------|--------0-(0)-----0---|
|---------------1----|----------------1-----|
|-------0---------0--|----------------------|
|-----2--------------|------2---------------|
|-0------------------|----------------------|
|--------------------|-3--------------------|
|
| Gtr IV
| W                    W
|--------------------|----------------------|
|--------------------|----------------------|
|--------------------|-5--------------------|
|-7------------------|-5--------------------|
|-7------------------|-3--------------------|
|-5------------------|-3--------------------|
|
| Gtr II
| H         +H         E Q.      H
|--------------------|----------------------|
|-8---------(8)------|----------------------|
|-7b9-------(7)------|-5--------------------|
|--------------------|---5-------5tr7-------|
|--------------------|----------------------|
|--------------------|----------------------|


  F                                  C5     G5      C5
  Q.   E  E  E +E  E    Q    Q       E.     S +E    E
|---------1----------|----------------------------------|
|------------1-(1)---|----------------------------------|
|------------------2-|---------------5--------------5---|
|------3-------------|---------------5------5-(5)---5---|
|-3------------------|---------------3------5-(5)---3---|
|-1------------------|--1-------------------3-(3)-------|
|
| W                    +Q    Q       E.     S +E    E
|--------------------|----------------------------------|
|--------------------|----------------------------------|
|--------------------|---------------5--------------5---|
|-3------------------|-(3)-----------5------5-(5)---5---|
|-3------------------|-(3)-----------3------5-(5)---3---|
|-1------------------|-(1)------------------3-(3)-------|
|
| H      +Q.       E    E  E S S S S S  S S S  S  S S S
|--------------------|----------------------------------|
|--------------------|----------------------------5---7-|
|--------------------|------------------5---6--7--------|
|-3------(3)---------|-----------5-6-7------------------|
|--------------------|-----5-6-7------------------------|
|--------------------|----------------------------------|


  Am7                   C/G
  Q     E E +E  E E E   Q.     E  E      E E E
|---------0-(0)-------|-----------0------------|
|---------------1-----|------------------1-----|
|-------2-----------0-|----------------------0-|
|-2---------------2---|--------2-----------2---|
|-0-------------------|------------------------|
|---------------------|-3----------------------|
|
| W                     W
|---------------------|------------------------|
|---------------------|------------------------|
|---------------------|-5----------------------|
|-7-------------------|-5----------------------|
|-7-------------------|-3----------------------|
|-5-------------------|-3----------------------|
|
| H.              Q     E  E E E +Q        E E
|---------------------|------5-8-(8)b10====8-8-|
|-8b10----------------|-8--8-------------------|
|---------------------|------------------------|
|---------------------|------------------------|
|---------------------|------------------------|
|---------------------|------------------------|


  F
   Q.          E     E    E E E    Q    Q         E. S +E   E
|--------------------1----------|--------------------------------|
|-------------------------1-----|--------------------------------|
|-----------------------------2-|-----------------5---------5----|
|--3-----------3------------3---|-----------------5--5-(5)--5----|
|--3----------------------------|-----------------3--5-(5)--3----|
|--1----------------------------|--1-----------------3-(3)-------|
|
|  W                              +Q    Q         E. S +E   E
|-------------------------------|--------------------------------|
|-------------------------------|--------------------------------|
|-------------------------------|-----------------5---------5----|
|--3----------------------------|-(3)-------------5--5-(5)--5----|
|--3----------------------------|-(3)-------------3--5-(5)--3----|
|--1----------------------------|-(1)----------------3-(3)-------|
|
|          |--3--|
| +Q   +S  S S   S S H            +E  E E  E     +Q.        E
|-(8)r=(8)-5h8p==5--------------|--------------------------------|
|------------------8-8b10-------|-(8)-----10b12-(10)-------10b12-|
|-------------------------------|--------------------------------|
|-------------------------------|--------------------------------|
|-------------------------------|--------------------------------|
|-------------------------------|--------------------------------|


  Am7                        C/G
   Q     E E +E  E E  E        Q.   E  E    E E  E
|----------0-(0)-----------|-----------0--------------|
|----------------1---------|----------------1---------|
|--2-----2------------0----|---------------------0----|
|--2---------------2-------|--------2---------2-------|
|--0-----------------------|--------------------------|
|--------------------------|---3----------------------|
|
|  W                           W
|--------------------------|--------------------------|
|--------------------------|--------------------------|
|--------------------------|---5----------------------|
|--7-----------------------|---5----------------------|
|--7-----------------------|---3----------------------|
|--5-----------------------|---3----------------------|
|
|  H.              E  E       +Q.   E  Q      E  E
|--------------------------|--------------------------|
|-10b12--------------10b13-|-(10)-----10b12-----10b12-|
|--------------------------|--------------------------|
|--------------------------|--------------------------|
|--------------------------|--------------------------|
|--------------------------|--------------------------|


  F                                                     C5    G5    C5
  Q.            E  E    E E E    Q            Q         E.    S +E  E
|------------------1----------|-----------------------------------------|
|-----------------------1-----|-----------------------------------------|
|---------------------------2-|-------------------------5-----------5---|
|-3-------------3---------3---|-------------------------5-----5-(5)-5---|
|-3---------------------------|-------------------------3-----5-(5)-3---|
|-1---------------------------|--1----------------------------3-(3)-----|
|
| W                             +Q            Q         E.    S +E  E
|-----------------------------|-----------------------------------------|
|-----------------------------|-----------------------------------------|
|-----------------------------|-------------------------5-----------5---|
|-3---------------------------|-(3)---------------------5-----5-(5)-5---|
|-3---------------------------|-(3)---------------------3-----5-(5)-3---|
|-1---------------------------|-(1)---------------------------3-(3)-----|
|
|                                |-3--|   |--3--|
| E   E     +Q     H             S  S S S S S   S S Q      Q.
|-----------------------------|-----------------------------------------|
|----10b13-(10)---10b12r======|==8h10p8---------------------------------|
|-----------------------------|---------9-5h7p==5---7b9r===5------------|
|-----------------------------|-------------------7---------------------|
|-----------------------------|-----------------------------------------|
|-----------------------------|-----------------------------------------|


  Am7                             C/G
   Q       E   E  +E   E   E  E    Q.   E E     E +Q
|--------------0--(0)-----------|---------0-------------|
|----------------------1--------|---------------1-(1)---|
|----------2------------------0-|-----------------------|
|--2-----------------------2----|-------2---------------|
|--0----------------------------|-----------------------|
|-------------------------------|--3--------------------|
|
|  W                               W
|-------------------------------|-----------------------|
|-------------------------------|-----------------------|
|-------------------------------|--5--------------------|
|--7----------------------------|--5--------------------|
|--7----------------------------|--3--------------------|
|--5----------------------------|--3--------------------|
|
|                                         |-3-|
| +E   E   E   E   E   E   E  E   +Q.   E S S S E  E  E
|-------------------------------|-------------------------|
|-------------------------------|-------------------------|
|-(5)-----<5-<7-----<7-<5---|-----------------------------|
|-----<7---------<7---------7-|-(7)-----5h7p5----7--5-----|
|-------------------------------|---------------7---------|
|-------------------------------|-------------------------|


  F                              C

  Q  E E E E E E    E  E E E E E E E
|----------------|-------------------||
|----------------|---------------5---||
|-2--2-2-2-2-2-2-|--2--2-2-2-2---5---||
|-3--3-3-3-3-3-3-|--3--3-3-3-3---5---||
|-3--3-3-3-3-3-3-|--3--3-3-3-3---3---||
|-1--1-1-1-1-1-1-|--1--1-1-1-1-------||
|
|
| Q  E E E E E E    E  E E E E E E E
|----------------|-------------------||
|----------------|---------------5---||
|-2--2-2-2-2-2-2-|--2--2-2-2-2---5---||
|-3--3-3-3-3-3-3-|--3--3-3-3-3---5---||
|-3--3-3-3-3-3-3-|--3--3-3-3-3---3---||
|-1--1-1-1-1-1-1-|--1--1-1-1-1-------||
|
| W                +Q    Q   H
|----------------|-------------------||
|----------------|-------------------||
|----------------|-------------------||
|-3--------------|-(3)---------------||
|----------------|-------------------||
|----------------|-------------------||


 Section VI (03:35)
  Bm                D5     Bm                G5    Bm                D5
  Gtr III
  E   S S S E S E E  Q     E   S S S E S E E Q     E   S S S E S E E  Q
        |   | | |                |   | | |               |   | | |
        /   / / /                /   / / /               /   / / /

  Gtr I
  S S S S S E S E E  E E   S S S S S E S E E E E   S S S S S E S E E  E E
|-2-2-2-2---2-2-2--------|-2-2-2-2---2-2-2-------|-2-2-2-2---2-2-2---------|
|-3-3-3-3---3-3-3--------|-3-3-3-3---3-3-3-------|-3-3-3-3---3-3-3---------|
|-4-4-4-4---4-4-4----7---|-4-4-4-4---4-4-4-------|-4-4-4-4---4-4-4----7----|
|-4-4-4-4---4-4-4----7---|-4-4-4-4---4-4-4---5---|-4-4-4-4---4-4-4----7----|
|-2-2-2-2---2-2-2----5---|-2-2-2-2---2-2-2---5---|-2-2-2-2---2-2-2----5----|
|------------------------|-------------------3---|-------------------------|
|
| Gtr II
| S S S S S E S E E  E E   S S S S S E S E E E E   S S S S S E S E E  E E
|---7-7-7---7-7-7---10---|---7-7-7---7-7-7---7---|---7-7-7---7-7-7---10----|
|---7-7-7---7-7-7---10---|---7-7-7---7-7-7---8---|---7-7-7---7-7-7---10----|
|---7-7-7---7-7-7----7---|---7-7-7---7-7-7---7---|---7-7-7---7-7-7----7----|
|-9----------------------|-9---------------------|-9-----------------------|
|-9----------------------|-9---------------------|-9-----------------------|
|-7----------------------|-7---------------------|-7-----------------------|


  Bm                G5    Bm                  D5
  E   S S S E S E E Q     S S S S S E S E S S  E S S
        |   | | |         | | | |   | | | | |  | | |
        /   / / /         / / / /   / / / x x  / x x

  S S S S S E S E E E E   S S S S S E S E E    E E
|-2-2-2-2---2-2-2-------|-2-2-2-2---2-2-2------------|
|-3-3-3-3---3-3-3-------|-3-3-3-3---3-3-3------------|
|-4-4-4-4---4-4-4-------|-4-4-4-4---4-4-4------7-----|
|-4-4-4-4---4-4-4---5---|-4-4-4-4---4-4-4------7-----|
|-2-2-2-2---2-2-2---5---|-2-2-2-2---2-2-2------5-----|
|-------------------3---|----------------------------|
|
| S S S S S E S E E E E   S S S S S E S E S S  E S S
|---7-7-7---7-7-7---7---|---7-7-7---7-7-7-----10-----|
|---7-7-7---7-7-7---8---|---7-7-7---7-7-7-7-7-10-7-7-|
|---7-7-7---7-7-7---7---|---7-7-7---7-7-7-7-7--7-7-7-|
|-9---------------------|-9--------------------------|
|-9---------------------|-9--------------------------|
|-7---------------------|-7--------------------------|


  Bm                  G5
  S S S S S E S E S S E S S
  | | | |   | | | | | | | |
  / / / /   / / / x x / x x

  S S S S S E S E E   E E
|-2-2-2-2---2-2-2-------------|
|-3-3-3-3---3-3-3-------------|
|-4-4-4-4---4-4-4-------------|
|-4-4-4-4---4-4-4-----5-------|
|-2-2-2-2---2-2-2-----5-------|
|---------------------3-------|
|
| S S S S S E S E S S E S S
|---7-7-7---7-7-7-----7-------|
|---7-7-7---7-7-7-7-7-8-8-8---|
|---7-7-7---7-7-7-7-7-7-7-7---|
|-9---------------------------|
|-9---------------------------|
|-7---------------------------|


    Bm                  D5
    S S S S S E S E S S  E S S
    | | | |   | | | | |  | | |
    / / / /   / / / x x  / x x

    S S S S S E S E E    E E
||--2-2-2-2---2-2-2------------|
||o-3-3-3-3---3-3-3------------|
||--4-4-4-4---4-4-4------7-----|
||--4-4-4-4---4-4-4------7-----|
||o-2-2-2-2---2-2-2------5-----|
||-----------------------------|
|
|   S S S S S E S E S S  E S S
||----7-7-7---7-7-7-----10-----|
||o---7-7-7---7-7-7-7-7-10-7-7-|
||----7-7-7---7-7-7-7-7--7-7-7-|
||--9--------------------------|
||o-9--------------------------|
||--7--------------------------|


  Bm                  G5      Esus2         Dsus2
  S S S S S E S E S S E S S   E S S +S  S E E S S +S  S E
  | | | |   | | | | | | | |   | | |  |  | | | | |  |  | |
  / / / /   / / / x x / x x   / / /  /  / / / / /  /  / /

  S S S S S E S E E   E E     H             H
|-2-2-2-2---2-2-2-----------|-7-------------5-------------|
|-3-3-3-3---3-3-3-----------|-7-------------5-------------|
|-4-4-4-4---4-4-4-----------|-9-------------7-------------|
|-4-4-4-4---4-4-4-----5-----|-9-------------7-------------|
|-2-2-2-2---2-2-2-----5-----|-7-------------5-------------|
|---------------------3-----|-----------------------------|
|
| S S S S S E S E S S E S S   E S S +S  S E E S S +S  S E
|---7-7-7---7-7-7-----7-----|-7-7-7-(7)-7-7-5-5-5-(5)-5-5-|
|---7-7-7---7-7-7-7-7-8-8-8-|-7-7-7-(7)-7-7-5-5-5-(5)-5-5-|
|---7-7-7---7-7-7-7-7-7-7-7-|-9-9-9-(9)-9-9-7-7-7-(7)-7-7-|
|-9-------------------------|-9-9-9-(9)-9-9-7-7-7-(7)-7-7-|
|-9-------------------------|-7-------------5-------------|
|-7-------------------------|-----------------------------|


  Csus2
  E S S S S E S S S S E S S
  | | |   | |   | | | | | |
  / / /   / /   x x / x x /

  W
|-3--------------------------||
|-3-------------------------o||
|-5--------------------------||
|-5--------------------------||
|-3-------------------------o||
|----------------------------||
|
| E S S S S E S S S S E S S
|-3-3-3---3-3---3-3-3-3------||
|-3-3-3---3-3---3-3-3-3-3-3-o||
|-5-5-5---5-5---5-5-5-5-5-5--||
|-5-5-5---5-5---5-5-5-5-5-5--||
|-3-3-3---3-3---3-3-3-3-----o||
|----------------------------||


  Bm                  D5       Bm                  G5
  S S S S S E S E S S  E S S   S S S S S E S E S S E S S
  | | | |   | | | | |  | | |   | | | |   | | | | | | | |
  / / / /   / / / x x  / x x   / / / /   / / / x x / x x

  S S S S S E S E E    E E     S S S S S E S E E   E E
|-2-2-2-2---2-2-2------------|-2-2-2-2---2-2-2-----------|
|-3-3-3-3---3-3-3------------|-3-3-3-3---3-3-3-----------|
|-4-4-4-4---4-4-4------7-----|-4-4-4-4---4-4-4-----------|
|-4-4-4-4---4-4-4------7-----|-4-4-4-4---4-4-4-----5-----|
|-2-2-2-2---2-2-2------5-----|-2-2-2-2---2-2-2-----5-----|
|----------------------------|---------------------3-----|
|
| S S S S S E S E S S  E S S   S S S S S E S E S S E S S
|---7-7-7---7-7-7-----10-----|---7-7-7---7-7-7-----7-----|
|---7-7-7---7-7-7-7-7-10-7-7-|---7-7-7---7-7-7-7-7-8-8---|
|---7-7-7---7-7-7-7-7--7-7-7-|---7-7-7---7-7-7-7-7-7---7-|
|-9--------------------------|-9-------------------------|
|-9--------------------------|-9-------------------------|
|-7--------------------------|-7-------------------------|


  Bm                  D5       Bm                  G5
  S S S S S E S E S S  E S S   S S S S S E S E S S E S S
  | | | |   | | | | |  | | |   | | | |   | | | | | | | |
  / / / /   / / / x x  / x x   / / / /   / / / x x / x x

  S S S S S E S E E    E E     S S S S S E S E E   E E
|-2-2-2-2---2-2-2------------|-2-2-2-2---2-2-2-----------|
|-3-3-3-3---3-3-3------------|-3-3-3-3---3-3-3-----------|
|-4-4-4-4---4-4-4------7-----|-4-4-4-4---4-4-4-----------|
|-4-4-4-4---4-4-4------7-----|-4-4-4-4---4-4-4-----5-----|
|-2-2-2-2---2-2-2------5-----|-2-2-2-2---2-2-2-----5-----|
|----------------------------|---------------------3-----|
|
| S S S S S E S E S S  E S S   S S S S S E S E S S E S S
|---7-7-7---7-7-7-----10-----|---7-7-7---7-7-7-----7-----|
|---7-7-7---7-7-7-7-7-10-7-7-|---7-7-7---7-7-7-7-7-8-8-8-|
|---7-7-7---7-7-7-7-7--7-7-7-|---7-7-7---7-7-7-7-7-7-7-7-|
|-9--------------------------|-9-------------------------|
|-9--------------------------|-9-------------------------|
|-7--------------------------|-7-------------------------|
|
| Gtr IV
| w                            W
|----------------------------|---------------------------|
|----------------------------|---------------------------|
|----------------------------|---------------------------|
|----------------------------|---------------------------|
|----------------------------|---------------------------|
|----------------------------|---------------------------|


  Bm                    D5
  S S S S S E   S E S S  E S S
  | | | |   |   | | | |  | | |
  / / / /   /   / / x x  / x x

  S S S S S E   S E E    E E
|-2-2-2-2---2---2-2-------------|
|-3-3-3-3---3---3-3-------------|
|-4-4-4-4---4---4-4------7------|
|-4-4-4-4---4---4-4------7------|
|-2-2-2-2---2---2-2------5------|
|-------------------------------|
|
| S S S S S E   S E S S  E S S
|---7-7-7---7---7-7-----10------|
|---7-7-7---7---7-7-7-7-10-7-7--|
|---7-7-7---7---7-7-7-7--7-7-7--|
|-9-----------------------------|
|-9-----------------------------|
|-7-----------------------------|
|
| S S S S S S S S e e    Q
|-------------------------------|
|---------4-------4-------------|
|-----4-6---6-4-6---4----4------|
|---4---------------------------|
|-------------------------------|
|-------------------------------|


  Bm                      G5
   S  S S S S E   S E S S E S S
   |  | | |   |   | | | | | | |
   /  / / /   /   / / x x / x x

   S  S S S S E   S E E   E E
|--2--2-2-2---2---2-2-----------|
|--3--3-3-3---3---3-3-----------|
|--4--4-4-4---4---4-4-----------|
|--4--4-4-4---4---4-4-----5-----|
|--2--2-2-2---2---2-2-----5-----|
|-------------------------3-----|
|
|  S  S S S S E   S E S S E S S
|-----7-7-7---7---7-7-----7-----|
|-----7-7-7---7---7-7-7-7-8-8-8-|
|-----7-7-7---7---7-7-7-7-7-7-7-|
|--9----------------------------|
|--9----------------------------|
|--7----------------------------|
|
| +S  S S S S S S S e e   Q
|-------------------------------|
|-----------4-------4-----------|
|-(4)---4-6---6-4-6---4---4-----|
|-----4-------------------------|
|-------------------------------|
|-------------------------------|


  Bm                      D5       Bm
                                  3/4
   S  S S S S E   S E S S  E S S    S  S S S S E   S E S S
   |  | | |   |   | | | |  | | |    |  | | |   |   | | | |
   /  / / /   /   / / x x  / x x    /  / / /   /   / / x x

   S  S S S S E   S E E    E E      S  S S S S E   S E E
|--2--2-2-2---2---2-2------------|--2--2-2-2----------------||
|--3--3-3-3---3---3-3------------|--3--3-3-3---7---7-7------||
|--4--4-4-4---4---4-4------7-----|--4--4-4-4---7---7-7------||
|--4--4-4-4---4---4-4------7-----|--4--4-4-4---9---9-9------||
|--2--2-2-2---2---2-2------5-----|--2--2-2-2---9---9-9------||
|--------------------------------|-------------7---7-7-0----||
|
|  S  S S S S E   S E S S  E S S    S  S S S S E   S E S S
|-----7-7-7---7---7-7-----10-----|-----7-7-7---7---7-7------||
|-----7-7-7---7---7-7-7-7-10-7-7-|-----7-7-7---7---7-7-7-7--||
|-----7-7-7---7---7-7-7-7--7-7-7-|-----7-7-7---7---7-7-7-7--||
|--9-----------------------------|--9-----------------------||
|--9-----------------------------|--9-----------------------||
|--7-----------------------------|--7-----------------------||
|
| +S  S S S S S S S e e    Q       +S  S S S S S S S e e
|--------------------------------|--------------------------||
|-----------4-------4------------|-----------4-------4------||
|-(4)---4-6---6-4-6---4----4-----|-(4)---4-6---6-4-6---4----||
|-----4--------------------------|-----4--------------------||
|--------------------------------|--------------------------||
|--------------------------------|--------------------------||


  G          CaddG D     CaGdD     A5  E
 4/4
  W              W                     W           W           W
  |
  /

  H    +Q.   E   E E +E  E E E +E  E   H    H      H    H      W
|-3----(3)-----|---2-(2)-----2-(2)---|-----------|-----------|------|
|-3----(3)---3-|-3-3-(3)-3-3-3-(3)---|-----------|-----------|------|
|-4----(4)---0-|-0-2-(2)-0-0-2-(2)-2-|-1----1----|-1----1----|-1----|
|-5----(5)---2-|-0-0-(0)-2-0-0-(0)-2-|-2----2----|-2----2----|-2----|
|-5----(5)---3-|-2-------3-2-------0-|-2----2----|-2----2----|-2----|
|-3----(3)-----|-3---------3---------|-0----0----|-0----0----|-0----|
|
| H    +Q.   E   W                     W           W           W
|-3----(3)-----|---------------------|-----------|-----------|------|
|-3----(3)-----|---------------------|-----------|-----------|------|
|-4----(4)-----|---------------------|-----------|-----------|------|
|-5----(5)-----|---------------------|-----------|-----------|------|
|-5----(5)-----|---------------------|-----------|-----------|------|
|-7----(7)-----|---------------------|-----------|-----------|------|
|
| H    +Q.   E   W                     W           W           W
|--------------|---------------------|-----------|-----------|------|
|--------------|---------------------|-----------|-----------|------|
|-4----(4)-----|---------------------|-----------|-----------|------|
|--------------|---------------------|-----------|-----------|------|
|--------------|---------------------|-----------|-----------|------|
|--------------|---------------------|-----------|-----------|------|


                  Section VII (04:26)
  Q=102                                Q=65              Q=59
                   C                   Dadd4   C   G/B   Am
  +H.       Q      W                   W                  W
|---------------||-------------------|-----------------|---------------------*|
|---------------||-------------------|-----------------|---------------------*|
|-(1)-----------||-------------------|-----------------|---------------------*|
|-(2)-----------||-------------------|-----------------|---------------------*|
|-(2)-----------||-------------------|-----------------|---------------------*|
|-(0)-----------||-------------------|-----------------|---------------------*|
|
| Gtr V
|  H     Q  E E    E E E E +E  E E E   E E E E E E E E    H    +Q   +S  S E
|---------------||-------3-(3)-------|-----------------|---------------------*|
|---------------||-------------1---1-|-3---3-----------|-^5----(5)--(5)------*|
|---------------||-----0-----------0-|-----------------|-^5----(5)--(5)------*|
|---------------||---2-----------2---|-0-4---5---5---5-|-^7----(7)--(7)------*|
|-----------0-2-||-3-----------------|---------3-------|-^7----(7)--(7)------*|
|---------------||-------------------|-------------7---|-^5----(5)--(5)------*|


Duration Legend
---------------
W - whole; H - half; Q - quarter; E - 8th; S - 16th; T - 32nd; X - 64th; a - acciaccatura
+ - note tied to previous; . - note dotted; .. - note double dotted
Uncapitalized letters represent notes that are staccato (1/2 duration)
Irregular groupings are notated above the duration line
Duration letters will always appear directly above the note/fret number it represents the
duration for.  Duration letters with no fret number below them represent rests.  Multi-
bar rests are notated in the form Wxn, where n is the number of bars to rest for.  Low
melody durations appear below the staff

Tablature Legend
----------------
 h   - hammer-on
 p   - pull-off
 b   - bend
 pb  - pre-bend
 r   - bend release (if no number after the r, then release immediately)
 /\  - slide into or out of (from/to "nowhere")
 s   - legato slide
 S   - shift slide
  - natural harmonic
[n]  - artificial harmonic
n(n) - tapped harmonic
 ~   - vibrato
 tr  - trill
 T   - tap
 TP  - trem. picking
 PM  - palm muting
\n/  - tremolo bar dip; n = amount to dip
 \n  - tremolo bar down
 n/  - tremolo bar up
/n\  - tremolo bar inverted dip
 =   - hold bend; also acts as connecting device for hammers/pulls
 <>  - volume swell (louder/softer)
 x   - on rhythm slash represents muted slash
 o   - on rhythm slash represents single note slash

Misc Legend
-----------
 |  - bar
||  - double bar
||o - repeat start
o|| - repeat end
*|  - double bar (ending)
 :  - bar (freetime)
 $  - Segno
 &  - Coda
Tempo markers -  = BPM(8/16=s8/s16), where s8 = swing 8ths, s16 = swing 16ths


Rush - 2112 II Temples of Syrinx (4:34 - 6:43)

[Riff 1]
   E  Am                C5 G5           D5
e:------------------------------------------|---------------------------|
B:----1-1-1-----1-1-1-----------------------|----1-1-1-----1-1-1--------|
G:-1--2-2-2--1--2-2-2---5---------5-----7\--|-1--2-2-2--1--2-2-2---5----|
D:-2--2-2-2--2--2-2-2---5--5-5-5--5--5--7\--|-2--2-2-2--2--2-2-2---5--5~|
A:-2--0-0-0--2--0-0-0---3--5-5-5--3--5--5\--|-2--0-0-0--2--0-0-0---3--5~|
E:-0---------0-------------3-3-3-----3------|-0---------0-------------3~|

[Riff 2]
                     Bm      G       A       B
e:----------------------2-2-----3-3-----5-5-----|
B:----------------------3-3-----3-3-----5-5-----|
G:-------------------4--4-4-----4-4-----6-6-----|
D:-------------------4-------5-------7----------|
A:----------0--------2-------5-------7----------|
E:-0--2--3-----3--0-(2)------3-------5-------7\-|

[Riff 3]
                     D5
e:----------------------|
B:-------------------3--|
G:-------------------2--|
D:-------------------0--|
A:-----------0----------|
E:--0--2--3-----3-------|


Progression:

[Riff 1] x2

[Riff 1] x2 w/ lyrics:

We've taken care of everything, the words you read and the songs you
sing, the pictures that give pleasure to your eye.
It's one for all and all for one. We work together, common sons.
Never need to wonder how or why.

[Riff 2] x4 w/ lyrics:

We are the priests of the temples of Syrinx.
Our great computers fill the hallowed halls.
We are the priests of the temples of Syrinx.
All the gifts of life are held within our walls.

[Riff 3] x1

     B                 D   B                 G5
e:-----------------------------------------------|-----------------|
B:-----------------------------------------------|-----------------|
G:o--4-4-4-4--4--4-4---7---4-4-4-4--4--4-4---4--o|-4-4-4-4-4-4-4-4-|
D:o--4-4-4-4--4--4-4---7---4-4-4-4--4--4-4---5--o|-5-5-5-5-5-5-5-5-|
A:---2-2-2-2--2--2-2---5---2-2-2-2--2--2-2---5---|-5-5-5-5-5-5-5-5-|
E:-------------------------------------------3---|-3-3-3-3-3-3-3-3-|

[Riff 1] x2 w/ lyrics:

Look around this world we've made, equality our stock in trade, come and
join the brotherhood of man.
Oh what a nice, contented world, let the banners be unfurled. Hold the
red star proudly high in hand.

[Riff 2] x4 w/ lyrics:

We are the priests of the temples of Syrinx.
Our great computers fill the hallowed halls.
We are the priests of the temples of Syrinx.
All the gifts of life are held within our walls.

[Riff 3] x1

Segue:

e:-------------------------------------------|
B:-------------------------------------------|
G:-4-4-4-4--4--4-4---7---4-4-4-4--4--4-4---4-|
D:-4-4-4-4--4--4-4---7---4-4-4-4--4--4-4---5-|
A:-2-2-2-2--2--2-2---5---2-2-2-2--2--2-2---5-|
E:-----------------------------------------3-|

e:-----------------------------------------3~~--------|
B:-----------------------------------------3~~--------|
G:-4-4-4-4--4--4-4---7---4-4-4-4--4--4-4---4~~--------|
D:-4-4-4-4--4--4-4---7---4-4-4-4--4--4-4---5~~--------|
A:-2-2-2-2--2--2-2---5---2-2-2-2--2--2-2---5~~--------|
E:-----------------------------------------3~~--------|

On a nylon-string acoustic:

    G          F#        Bm
e:--3----------2-------------------------------|
B:----3----3------2---2--3~--------------------|
G:------4-----------3----4~--------------------|
D:-----------------------4~--------------------|
A:-----------------------2~--------------------|
E:--3----------2-------------------------------|

Rush - 2112 III Discovery (6:44 - 10:15)

[Riff 1] - Freely               C(addD)
   G/D         D            G6/B   \/    A7
e:-7----7---7\-2----2---2-|----0---0--0--0------0~-------------|
B:-8-----8--8\-3------3-3-|-3--3---5\-3--2--------2--2--2------|
G:-7--7-----7\-2--2-----2-|-0--0---0--0--0---0-------0--0------|
D:-0--------0--0--------0-|-0------0--0--2-----------2--2------|
A:------------------------|-2------3\-2--0-----------0--0------|
E:------------------------|------------------------------------|

[Riff 2] - Gradual increase in volume and speed
  G/D C/D  A/D     D   C/D
e:-7--8-8--9---9---10--12\------------------------------------|
B:-8--8-8--10--10--10--13\------------------------------------|
G:-7--9-9--9---9---11--12\------------------------------------|
D:-0--0-0--0---0---0---0--------------------------------------|
A:------------------------------------------------------------|
E:------------------------------------------------------------|

[Riff 3a]         Gsus2      [Riff 3b]
                    |
    D  C Csus2 Dsus2| G
e:--2--0-----2--0.--5-7--5-|-2--7--0--2-----7--5--------------|
B:--3--1--3--3--3.--8-8--8-|-3--8--3--3--3.-8--8--------------|
G:--2--0--5--2--2.--7-7--7-|-2--7--2--2--5.-7--7--------------|
D:--------5----------------|-------------5.-------------------|
A:-------------------------|----------------------------------|
E:-------------------------|----------------------------------|

[Riff 3c]

e:--2--7--0--2------0-0---------|
B:--3--8--3--3--3.--3-3---------|
G:--2--7--2--2--5.--2-2---------|
D:--------------5.--------------|
A:------------------------------|
E:------------------------------|

[Riff 4] - Freely
    A                         D           E
e:--------------------------------------------------------------------|
B:-----2----2h3--2----3p3-----7--7h8--7---9~---9--9h10--9-------------|
G:----------2---------2-------7--7----7---9~---9--9-----9-------------|
D:-------2--2h4----2--4p2-----7--7h9--7---9~---9--9h11--9-------------|
A:--0~----------------0----0--------------0-----------------0---------|
E:--------------------------------------------------------------------|


Progression:

[Free time]:

e:-------------0~----------------------------------------------------|
B:-----------0~------------------------------------------------------|
G:---------0~-------------0~-----------------------------------------|
D:-------0~--------------------------------0~---------------0~-------|
A:-----0~------------0~---------------0~---------------0~------------|
E:-0~----------------------------------------------------------------|

e:---------------------------------------------------------------------|
B:---------------------------------------------------------------------|
G:--------2~-------2~~-------------------------------------------------|
D:-----0-----------------------0------<7~~~~~------------0.-----0.-----|
A:--0----------0------------0-----<7-------------------0~------0~------|
E:----------------------------------------------------0~-------0~------|

e:---------------------------------------------------------------------|
B:---------------------------------------------------------3~----------|
G:-----------------------------------------2~------------2-------------|
D:--------------------------0~--------0----------------0---------------|
A:----<7~-----0~-------0-----------------------------------------------|
E:<5-------0-----------------------------------------------------------|

e:---------0~-------3-5--2-------------------------------------------|
B:-----3-------------------3----3-----3~--------3--5~----------------|
G:-0h2---2-------------------2----2---2~--------4--5~----------------|
D:------------------------------------0~--------0--0~----------------|
A:-------------------------------------------------------------------|
E:-------------------------------------------------------------------|

e:--------------------------------------------------|------------------|
B:-7~------3---3~~---------<7~---------------------|-------------------|
G:-7~------0---2~~-------------<7~---------<12~---|--------------------|
D:-0~------0---0~~------------------<12~-----------|-------------------|
A:--------------------------------------<12~-------|-------------------|
E:--------------------------------------------------|------------------|

e:----------------|----------------|---7~-----------|----7~------------|
B:--3--5--3-------|----------------|--8~------------|---8~-------------|
G:--2--5--2-------|-----<5~~------|----------------|--7~---------------|
D:--0--0--0-------|----------------|----------------|---------0~-------|
A:----------------|----------------|----------------|------------------|
E:----------------|----------------|----------------|------------------|


[Riff 1] x2

[Riff 1] x2 w/ lyrics:

What can this strange device be? When I touch it, it gives forth a sound.
It has wires that vibrate and give music, what can this thing be that
I've found?

[Riff 2] x4

[Riff 3a] x2

[Riff 3a] x1 /w lyrics:

        See how it sings like a sad heart, and

[Riff 3b] x1 /w lyrics:

        joyously screams out its pain.

[Riff 3c] x1 /w lyrics:

        Sounds that build high like a mountain -

    D      C9    G             C9     G     A7
e:--2---------------------------------------------------------------|
B:--3------5s3---3~------------5~s3---3~----2~----------------------|
G:--2------0-----0~---0--0--0--0~-----0~----0~----------------------|
D:--0------0-----0~---0--0--0--0~-----0~----2~----------------------|
A:---------3s2---2~---2--2--2--3~s2---2~----0~----------------------|
E:------------------------------------------------------------------|
Or notes  that  fall          ge-    ent-  ly   like

e:-------------------------------------------------------------------|
B:-------------------------------------------------------------------|
G:--0--0--0--0--0--0--0--0--0--0--0--0--0--0--0--0--0--0--0--0-------|
D:--12-12-12-12s9--9--9--9s-11-11-11-11s7--7--7--7s-9--9--9--9s------|
A:--0--0--0--0--0--0--0--0--0--0--0--0--0--0--0--0--0--0--0--0-------|
E:-------------------------------------------------------------------|
    rain...
e:-------------------------------------------------------------------|
B:-------------------------------------------------------------------|
G:--0--0--0--0--0--0--0--0--0--0--0--0--0--0--0--0--0--0--0--0-------|
D:--5--5--5--5s-7--7--7--7s-4--4--4--4s-5--5--5--5s-2--2--2--2s------|
A:--0--0--0--0--0--0--0--0--0--0--0--0--0--0--0--0--0--0--0--0-------|
E:-------------------------------------------------------------------|

e:-------------------------------------------------------------------|
B:-------------------------------------------------------------------|
G:--0--0--0--0--0--0--0--0--0--0--0--0--0--0--0--0-------------------|
D:--7--7--7--7s-4--4--4--4s-5--5--5--5--0--0--0--0-------------------|
A:--0--0--0--0--0--0--0--0--0--0--0--0--0--0--0--0-------------------|
E:-------------------------------------------------------------------|

[Riff 4] x2

[Riff 4] x4 w/ lyrics:

I can't wait to share this new wonder
The people will all see its light.
Let them all make their own music.
The priests praise my name on this night.

Rush - 2112 IV Presentation (10:16 - 13:55)

[Riff 1] - Freely
    A                       D
e:------------5--5~---5-5-----------------------------------|
B:------------5--5~---5-5---7-7~-8--7--7--7.-8-----7~--7----|
G:------6-6~--6--6~---6-6---7-7~-7--7--7--7.-7-----7~--7----|
D:--7~--7-7~--7--7~---7-7---7-7~-7--7--7--7.-7--7--7~--7----|
A:--7~--7-7~--7--7~---7-7---5-5~-5--5--5--5.-5--5--5~--5----|
E:--5~--5-5~--5--5~---5-5-----------------------5-----------|

[Riff 2a] - Doubled by an acoustic guitar (electric is flanged)

   A  Bm/A D  Amaj7      Bm/A  E Bm  A
e:-----------------|-----------------------------------------|
B:-2--3-3--7--5-5\-|--2--3-3---9--3--2-----------------------|
G:-2--4-4--7--6-6\-|--2--4-4---9--4--2-----------------------|
D:-2--4-4--7--6-6\-|--2--4-4---9--4--2-----------------------|
A:-0--0-0-----0-0--|--0--0-0---------0-----------------------|
E:-----------------|-----------------------------------------|

[Riff 2b] - Doubled by an acoustic guitar (electric is flanged)

   A  Bm/A D  Amaj7      Bm/A  E  A
e:-----------------|-----------------------------------------|
B:-2--3-3--7--5-5\-|--2--3-3---9--14--14\--------------------|
G:-2--4-4--7--6-6\-|--2--4-4---9--14--14\--------------------|
D:-2--4-4--7--6-6\-|--2--4-4---9--14--14\--------------------|
A:-0--0-0-----0-0--|--0--0-0---------------------------------|
E:-----------------|-----------------------------------------|

[Riff 3] - Doubled by an acoustic guitar
   A                    D            E
e:--------------------------------------------------------------|
B:-2--2---2-2-3p2-------7--7h8--7----9--9--9h10--9--------------|
G:-2--------------2-----7--7----7----9--9--9-----9--------------|
D:-2----2---------------7--7h9--7----9--9--9h11--9--------------|
A:-0------------------------------------------------------------|
E:--------------------------------------------------------------|

[Riff 4]
                    Bm       G       A       B
e:----------------------2-2-----3-3-----5-5-----|
B:----------------------3-3-----3-3-----5-5-----|
G:-------------------4--4-4-----4-4-----6-6-----|
D:-------------------4-------5-------7----------|
A:----------0--------2-------5-------7----------|
E:-0--2--3-----3--0----------3-------5-------7\-|

[Riff 5]
                    D5
e:----------------------|
B:------------------3~--|
G:------------------2~--|
D:------------------0~--|
A:-----------0----------|
E:--0--2--3-----3-0-----|

Progression:


[Riff 1] x2

[Riff 2a] x1 /w lyrics:

I know it's most unusual, to come before you so;

[Riff 2b] x1 /w lyrics:

But I've found an ancient miracle, I thought that you should know.

[Riff 3] x4 /w lyrics:

Listen to my music,
and hear what it can do.
There's something here as strong as life.
I know that it will reach you.

[Riff 1] x4 /w lyrics:

Yes we know, it's nothing new. It's just a waste of time.
We have no need for ancient ways. Our world is doing fine.
Another toy which helped destroy the elder race of man.
Forget about your silly whim, it doesn't fit the plan. No-how.

[Riff 2a] x1 /w lyrics:

I can't believe you're saying, these things just can't be true.

[Riff 2b] x1 /w lyrics:

Our world could use such beauty, just think what we might do.

[Riff 3] x4 /w lyrics:

Listen to my music,
and hear what it can do.
There's something here as strong as life.
I know that it will reach you.

[Riff 1] x4 /w lyrics:

Don't annoy us further, oh, we have our work to do.
Just think about the average. What use have they for you?
Another toy which helped destroy the elder race of man.
Forget about your silly whim, it doesn't fit the plan.

[Riff 4] x8 under [Guitar Solo] /w wah-wah and in the key of D
[Riff 5] x1

Rush - 2112 V Oracle: The Dream (13:56 - 16:00)

[Riff 1]
   D                 C    D             F             A
e:-------5~---5------3-3--2-2------3-3--5-5------3-3--0-0------------|
B:-----7--------7----5----3---3----5----6---6----5----2---2----------|
G:---7------------7--5----2-----2--5----5-----5--5----2-----2--------|
D:-7--------------------------------------------------2--------------|
A:----------------------------------------------------0--------------|
E:-------------------------------------------------------------------|

Thereafter Riff 1 goes like this:

e:--7-7--5-5----3-3--2-2----3-3--5-5---3-3--0--0---------|
B:--8----7--7---5----3--3---5----6--6--5----2---2--------|
G:--7----7---7--5----2---2--5----5---5-5----2----2-------|
D:------------------------------------------2------------|
A:------------------------------------------0------------|
E:-------------------------------------------------------|

[Riff 2] - Doubled by an acoustic guitar
   G  D  C  G  D Dsus4 D   C  F  C  D   A  D  A
e:-3--2--0--3--2~-3--2~----0--1--0--2--------------------|
B:-3--3--1--3--3~-3--3~----1--1--1--3---2~-3--2~---------|
G:-0--2--0--0--2~-2--2~----0--2--0--2---2~-2--2~---------|
D:-0--0--2--0--0~-0--0~----2--3--2--0---2~-4--2~---------|
A:-2-----3--2--------------3--3--3------0~-0--0~---------|
E:-3--------3-----------------1--------------------------|

** These are both doubled by an acoustic guitar
[Riff 3]          D/C#      [Riff 3a]
    Bm  G   A   D5 |  A5 Bm   C  D  A
e:--2~--3~-----------------|--0--2-----------------------|
B:--3~--3~--2~--3--3-------|--1--3--2--------------------|
G:--4~--0~--2~--2--2--2--4-|--0--2--2--------------------|
D:--4~--0~--2~--0--x--2--4-|--2--0--2--------------------|
A:--2~--2~--0~-----4--0--2-|--3-----0--------------------|
E:------3~-----------------|-----------------------------|


Progression:

[Riff 1] x2

[Riff 1] x2 /w lyrics:

I wandered home through silent streets, and fell into a fitful sleep.
Escape to realms beyond the night. Dream, can't you show me the light?

[Riff 2] x2 /w lyrics:

I stand atop a spiral stair; an oracle confronts me there.
He leads me on lightyears away, through astral nights, galactic days.

[Riff 3] x2 /w lyrics:

I see the work of gifted hands that grace the strange and wonderous land.
I see the hands of man arise with hungry mind and open eyes.

[Riff 3a] x1
[Riff 2] x1

[Riff 2] x2 /w lyrics:

They left our planets long ago. The elder race still learn and grow.
Their power grows with purpose strong to claim the home where they belong;

Segue:
   Bm                  G             E5/D    E5
e:-2~------------------3~-------------0.-----0~----|
B:-3~------------------3~-------------0.-----0~----|
G:-4~------------------0~-------------x------x-----|
D:-4~------------------0~-------------0.-----2~----|
A:-2~------------------2~--------------------2~----|
E:---------------------3~--------------------0~----|
     home to tear the Temples down, home to change....

Rush - 2112 VI Soliloquy (16:01 - 18:18)

** There appears to be phaser throughout this part (except for the guitar
        doing the soloing)

[Riff 1]
   D              C     G/B       Dm/F   Em7          D
e:-----2----------------------------------------------2-----|
B:-------3~----------------------------3--------------3-----|
G:---2------2~-0------0-----0--------2------0---------2-----|
D:-0----------------2-----0---0----3-----2~----0h3p0--0-----|
A:----------------3-----2~----------------------------------|
E:----------------------------------------------------------|

After the first time it goes like this:

   D              C     G/B       Dm/F   Em7           D
e:-2---------------------------------------------------2----|
B:---3--------3-----------------------3----------------3----|
G:-----2----2---0-----0-----0-------2-------0----------2----|
D:-------0~---------2-----0---0---3------2~-----0h3p0--0----|
A:----------------3-----2~----------------------------------|
E:----------------------------------------------------------|

[Riff 2]
   Am7          C/G         F                    C5  G5
e:--------0-----------0-------------1------------------------|
B:----------1-----------1-------------1---1------------------|
G:-----0------0-----0------------2------2--------5-----------|
D:-2-2------------2------------3------------3~---5---5-------|
A:-0------------------------3--------------------3---5-------|
E:--------------3-----------1------------------------3-------|

[Riff 3]
   Am7         C/G                                        E5
e:-------0-----------0-----------------------------------------|
B:---------1-----------1---------------------------------------|
G:-----0-----0-----0------2--2-2-2-2-2-2-2-2-2-2-2-2-2-2-------|
D:-2-2-----------2--------3--3-3-3-3-3-3-3-3-3-3-3-3-3-3--2~---|
A:-0----------------------3--3-3-3-3-3-3-3-3-3-3-3-3-3-3--2~---|
E:-------------3----------1--1-1-1-1-1-1-1-1-1-1-1-1-1-1--0~---|

Progression:

[Riff 1] x2

[Riff 1] x2 /w lyrics:

The sleep is still in my eyes, the dream is still in my head.
I heave a sigh and sadly smile, and lie a while in bed.

[Riff 2] x3 /w lyrics:

I wish that it might come to pass, not fade like all my dreams.
Just think of what my life might be, in a world like I have seen.
I don't think I can carry on, carry on this cold and empty life.
Oh, no...

[Guitar Solo] in C over [Riff 2] x5:

(I marked the parts which I am unsure of with an asterisk [*])

e:-------------------------------------------------------------------|
B:-------------------------------------------------------------------|
G:-------------------------------------------------------------------|
D:-----------------------------------3-5--5~~----5h7~~---5h7-7-5-7~~-|
A:---------------------x\--------3-5---------------------------------|
E:--3-3-3-3-3-3-3h5~---x\--5~~---------------------------------------|
                                    *

e:-------------------------------------------------------------------|
B:-------------------------------------------------------------------|
G:------5---5--7b9r7p5---5--7b9~~~r7--7b9--7b9r7--7-7-7-7b9r7--5-5-5-|
D:--7-5---7------------7---------------------------------------------|
A:-------------------------------------------------------------------|
E:-------------------------------------------------------------------|

e:-----------------|-------------------------------------12-15-------|
B:-----------------|------13-15-15b17r15p13----13-15b17--------------|
G:-7-7b9r7-5-------|--/14-------------------14-----------------------|
D:-----------7-5-7-|-------------------------------------------------|
A:-----------------|-------------------------------------------------|
E:-----------------|-------------------------------------------------|

e:-15b17r15b17~~--15b17~-15b17~----17b19~-17b19~~~~--17-17b19-17-----|
B:-------------------------------------------------------------------|
G:-------------------------------------------------------------------|
D:----------------------------------
Добавлено: 22.05.2012
Другие материалы по этой песне:
  • Аккорды и текст

Страница создана 22.05.2012
http://primanota.ru/rush/2112-album-chords.htm
Привет, Гость.
Предлагаем пройти революционный курс по гитаре.
Подарок от PrimaNota.Ru, забирай!