PrimaNota.ru - самый крупный в мире бесплатный архив песенных текстов, аккордов, табулатур и нот


Rush - Fly By Night (album) - таба, видео

Регистрация Запомнить меня
Войти через:  Facebook Google Twitter Vk Yandex Mail.ru

Rush - Fly By Night (album) - таба, видео

Печатать
Просмотров: 112
                              Rush
                           Fly By Night
                              1975

Zach here again on another Rush album tab. This time for “Fly By Night.”
The credit for the tabs goes to the following: B A R K E R, kennezar, and unregistered tabbers.

Fly By Night Track List
1. Anthem 4:21
2. Best I Can 3:25
3. Beneath, Between & Behind 3:01
4. By-Tor & The Snow Dog 8:37
5. Fly By Night 3:21
6. Making Memories 2:57
7. Rivendell 4:57
8. In The End 6:46



1. Anthem

Intro, Repeat 4 times (expanded tab)
 Overdriven guitar with slight slap back delay
  G       A       C       D
  q       q       q       e     q       e       s s s s s s
|-----------------------------|-----------------------------|
|-----------------------------|-----------------------------|
7o----------------5-------7---|-----------------------------|
8o5-------7-------5-------7---|------------------h-p--------|
|-5-------7-------3-------5---|---------7-------5-7-5--p---p|
|-3-------5-------------------|-0---------------------7-5-4-|

  q       e       s s s s s s   q       e       s s s s s
|-----------------------------|-----------------------------|
|-----------------------------|-----------------------------|
|-----------------------------|----------------------------o|
|------------------h-p--------|------------------h-p-------o|
|---------7-------5-7-5--p---p|---------7-------5-7-5--p----|
|-0---------------------7-5-4-|-0---------------------7-5\--|

  (Tab normal width)
  Repeat 3 times
  G   A   C   D   E
  q   q   q   e   ww
|---------------|-----------------|-----------------|
|---------------|-----------------|-----------------|
7o--------5---7o4-9---------------|--------pick--/x\|
8o5---7---5---7o4-9---------------|--------slide-/x\|
|-5---7---3---5-|-7---------------|--------------/x\|
|-3---5---------|-----------------|-----------------|

  1   2   3   4     1   2   3   4     1   2   3   4     1   2   3   4
  1 2 3 4 5 6 7 8   1 2 3 4 5 6 7 8   1 2 3 4 5 6 7 8   1 2 3 4 5 6 7 8
  E                                                     G A     C D
  e e   e e e sss   e e   e e e sss   e e   e e e sss   e e   sse e  ss
|-----------------|-----------------|-----------------|-----------------|
|-----------------|-----------------|-----------------|-----------------|
|-9-9\------------|-9-9\------------|-9-9\------------|---------5-7-----|
|-9-9\------------|-9-9\------------|-9-9\------------|-5-7---xx5-7--xx-|
|-7-7\------------|-7-7\------------|-7-7\------------|-5-7---xx3-5--xx-|
|-------0-0-0-000-|-------0-0-0-000-|-------0-0-0-000-|-3-5---xx-----xx-|

  E                                                     G A     C D
  e e   e e e       e e   e e e       e e   e e e       e e     e e
|-----------------|-----------------|-----------------|-----------------|
|-----------------|-----------------|-----------------|-----------------|
|-9-9\------------|-9-9\------------|-9-9\------------|---------5-7-----|
|-9-9\------------|-9-9\------------|-9-9\------------|-5-7-----5-7-----|
|-7-7\------------|-7-7\------------|-7-7\------------|-5-7-----3-5-----|
|-------0-0-0-----|-------0-0-0-----|-------0-0-0-----|-3-5-------------|

  E                                                     G A     C D
  e e     e e       e e     e e       e e     e e       e e   sse e
|-----------------|-----------------|-----------------|-----------------|
|-9-9\------------|-9-9\------------|-9-9\------------|-----------------|
|-9-9\------------|-9-9\------------|-9-9\------------|-------xx5-7-----|
|-9-9\------------|-9-9\------------|-9-9\------------|-5-7---xx5-7-----|
|-7-7\------------|-7-7\------------|-7-7\------------|-5-7---xx3-5-----|
|---------0-0-----|---------0-0-----|---------0-0-----|-3-5-------------|

  With phaser and slightly overdriven.
  E                 C                 Dsus4             E
  He            e   q   q he          e Q     e Q       h       E  E  e
|-----------------|-----------------|-----------------|-----------------|
|-----------------|-------1---------|---------3-------|-----------------|
|---------------0-|-----------------|-----------0-----|-----------------|
|-----------------|-----2-----------|---4-------------|-2-------2--0--2-|
|-2---------------|-3---------------|-5---------------|-----------------|
|-0---------------|-----------------|-----------------|-----------------|

  E                 C                 Dsus4             E
  Q     he          Q     e h         e Q     e Q       w Q     q   q
|-------0---------|-------3---------|-5-------2-------|-----------------|
|-----------------|-1-------1-------|---2-------3-----|-----------------|
|-1---------------|-----------------|-----------------|-----------------|
|-----------------|-----------------|-----------------|---2-----2--0----|
|-----------------|-----------------|-----------------|-----------------|
|-----------------|-----------------|-----------------|-0---------------|

  G                 A                 C       Dsus4     E
  he        e e e   q   e E     e e   E  qs   E  se e   w       e Q
|-3------------p--|--------------p--|-----------------|-----------------|
|-3---------3-3-0-|-2---3-2-----2-0-|-----------------|-----------------|
|-0---------------|-----------------|-----------------|-----------------|
|-0---------------|-----------------|----2-\-----4----|---------2-0-----|
|-2---------------|-----------------|-3----\--5----h--|-----------------|
|-3---------------|-----------------|-------------3-4-|-0---------------|

                                      With delay
  G                 A                 C       Ds4       C       D Ds4
  he        e e e   q   e Q     e e   e e e e e e       e e e   e e
|-3------------p--|--------------p--|-----3-3-3-3-----|-3-3-3/--5-3-----|
|-3---------3-3-0-|-2---3-2-----2-0-|-----1-1-3-3-----|-1-1-1/--3-3-----|
|-0---------------|-----------------|---0-0-0-2-2-----|-0-0-0---0-2-----|
|-0---------------|-----------------|---2-------------|-----------------|
|-2---------------|-----------------|-3---------------|-----------------|
|-3---------------|-----------------|-----------------|-----------------|

  C       Ds4       E
  e e e   e e       e e     e e       e e               e e     e e
|-3-3-3---3-3-----|-----------------|-----------------|-----------------|
|-1-1-1---3-3-----|-----------------|-----------------|-----------------|
|-0-0-0---2-2-----|-9-9\------------|-9-9\------------|-9-9-------------|
|-----------------|-9-9\------------|-9-9\------------|-9-9-------------|
|-----------------|-7-7\------------|-7-7\------------|-7-7-------------|
|-----------------|---------0-0-----|---------0-0-----|---------0-0-----|

  G A     C D       E
  e e     e e       e e     e e       e e     e e       e e     e e
|-----------------|-----------------|-----------------|-----------------|
|-----------------|-9-9\------------|-9-9\------------|-9-9-------------|
|---------5-7-----|-9-9\------------|-9-9\------------|-9-9-------------|
|-5-7-----5-7-----|-9-9\------------|-9-9\------------|-9-9-------------|
|-5-7-----3-5-----|-7-7\------------|-7-7\------------|-7-7-------------|
|-3-5-------------|---------0-0-----|---------0-0-----|---------0-0-----|

                    Delay repeats on 1/8 notes - - - - - - - - - - - - -
  G A     C D       E
  e e   sse e   ss  e e               e e               e e
|-----------------|-----------------|-----------------|-----------------|
|-----------------|-9-9-------------|-9-9-------------|-9-9-------------|
|-------xx5-7-----|-9-9-------------|-9-9-------------|-9-9-------------|
|-5-7---xx5-7---xx|-9-9-------------|-9-9-------------|-9-9-------------|
|-5-7---xx3-5---xx|-7-7-------------|-7-7-------------|-7-7-------------|
|-3-5-----------xx|-----------------|-----------------|-----------------|

  G       D         E                 C                 D
  h       h         He            e   q   e e h         e Q     e Q
|-3---------------|-----------------|-----------------|-----------------|
|-3-------7\------|-----------------|-------1---------|-3-------3-------|
|-4-------7\------|---------------0-|---------0-------|---2-------0-----|
|-5-------7\------|-----------------|-----2-----------|-----------------|
|-5-------5\------|-----------------|-3---------------|-----------------|
|-3---------------|-0---------------|-----------------|-----------------|

  E                                   C
  Qs     se e q     q   e he          Q     he          e Q     e Q
|-----------------|-------0---------|-------3---------|-5-------2-------|
|-----------------|-----0-----------|-1---------------|---3-------3-----|
|---------h-------|-1---------------|-----------------|-----------------|
|-2------02-0-2---|-----------------|-----------------|-----------------|
|-----------------|-----------------|-----------------|-----------------|
|-----------------|-----------------|-----------------|-----------------|

  E                 G                 A                 C       D
  h       e Q       he        e e e   q   e Q     e e   E  qs   E  se e
|-----------------|-3---------------|--------------p--|-----------------|
|-----------------|-3---------3-3-0-|-2---3-2-----2-0-|-----------------|
|-----------------|-0---------------|-----------------|-----------------|
|---------2-0-----|-0---------------|-----------------|----2-\-----4----|
|-----------------|-2---------------|-----------------|-3----\--5----h--|
|-0---------------|-3---------------|-----------------|-------------3-4-|

  E                 G                 A                 C       Ds4
  h       e Q       he        e e e   q   e Q     e e   e e e e e e
|-----------------|-3------------p--|--------------p--|-----3-3-3-3-----|
|-----------------|-3---------3-3-0-|-2---3-2-----2-0-|-----1-1-3-3-----|
|-----------------|-0---------------|-----------------|---0-0-0-2-2-----|
|---------2-0-----|-0---------------|-----------------|---2-------------|
|-----------------|-2---------------|-----------------|-3---------------|
|-0---------------|-3---------------|-----------------|-----------------|

  C       DsDs4     C       Ds4       E
  e e e   e e       e e e   e e       w+
|-3-3-3/--5-3-----|-3-3-3---3-3-----|-----------------|-----------------|
|-1-1-1/--3-3-----|-1-1-1---3-3-----|-----------------|-----------------|
|-0-0-0---0-2-----|-0-0-0---2-2-----|-----------------|-----------------|
|-----------------|-----------------|-----------------|-----------------|
|-----------------|-----------------|-----------------|-----------------|
|-----------------|-----------------|-0---------------|-----------------|

                                                        Solo w/wha wha
                                                        & slap back echo
                                                        S S S - - -- ---
|-----------------|-----------------|-----------------|-----------------|
|-----------------|-----------------|-----------------|-------increase--|
|-----------------|-----------------|-----------------|-7-7-7-picking---|
|-----------------|-----------------|-----------------|-------speed-----|
|-----------------|-----------------|-----------------|-----------------|
|-----------------|-----------------|-----------------|-----------------|


  1   2   3   4     1   2   3   4     1   2   3   4     1   2   3   4
  1 2 3 4 5 6 7 8   1 2 3 4 5 6 7 8   1 2 3 4 5 6 7 8   1 2 3 4 5 6 7 8
|-continue tremolo-picking with-----|-----------------|-----------------|
|-exagerated vibrato-(from hand)----|--1--------------|-----------------|
|-7-7-7-7-7-7-7-7-|-7-7-7-7-7-7-7---|-7^--------------|-----------------|
|-----------------|-----------------|---start bend &--|-5~--------------|
|-----------------|-----------------|---release-------|-----------------|
|-----------------|-----------------|-----------------|-----------------|

(Note: this is a work in progress)
 ***Tab expanded to twice normal width for clarity***
|------------------------------------------------------h----p-----|
|-----------------------------------------------(1)-12---15--12---|
|-(0)------------------------------------------14^----------------|
|-----------------------------------------------------------------|
|-----------------------------------------------------------------|
|-----------------------------------------------------------------|

|---------h----p-------------h----p------------h----p-------------|
|--(1)-12---15--12----(1)-12---15--12----(1)12---15--12----(1)-12-|
|-14^----------------14^----------------14^---------------14^-----|
|-----------------------------------------------------------------|
|-----------------------------------------------------------------|
|-----------------------------------------------------------------|

           (1.5)                   (1.5)                       r
|h---p----14^~--------------------14^~~---------------------------|
|-15---12---------------------------------------------------------|
|-----------------------------------------------------------------|
|-----------------------------------------------------------------|
|-----------------------------------------------------------------|
|-----------------------------------------------------------------|

|-12-----------(1)---r------------(1.5)-----------(1.5)-----------|
|-----15--12--15^-----15--12------17^-------------17^-------------|
|-----------------------------------------------------------------|
|-----------------------------------------------------------------|
|-----------------------------------------------------------------|
|-----------------------------------------------------------------|

|-(1.5)--------------------------------------------(1)---r--p-----|
|-17^-----------------------------17--15------15--17^---------15--|
|-----------------------------------------16----------------------|
|-----------------------------------------------------------------|
|-----------------------------------------------------------------|
|-----------------------------------------------------------------|

|--------------(1)---r--p----------------------(1)----r---p-------|
|-----15------17^---------15------15----------17^---------15------|
|-16--------------------------16------------------------------16--|
|-----------------------------------------------------------------|
|-----------------------------------------------------------------|
|-----------------------------------------------------------------|

   1               2               3               4             - 1/4
   1       2       3       4       5       6       7       8     - 1/8
   1   2   3   4   1   2   3   4   1   2   3   4   1   2   3   4 - 1/16
e|-----------------------------------------------------------------|
B|-15\-----------------------------12--14--------------------------|
G|----------------------12---14------------------------------------|
D|----------------/14----------------------------------------------|
A|-----------------------------------------------------------------|
E|-----------------------------------------------------------------|

To be finished later...
Sorry... tabbing solos is a pain in the rear end!

 Repeat 3 times                    (1)         (1)
|--------h---p------p-------------15^---------15^~~---------------|
|--(1)-12--15-12--15-12---12--12----------------------------------|
|o14^------------------------------------------------------------o|
|o---------------------------------------------------------------o|
|-----------------------------------------------------------------|
|-----------------------------------------------------------------|

  (Resume normal tab width)
  E                                                     G A     C D
  e e     e e       e e     e e       e e     e e       e e     e e
|-----------------|-----------------|-----------------|-----------------|
|-----------------|-----------------|-----------------|-----------------|
|-9-9\------------|-9-9\------------|-9-9\------------|---------5-7-----|
|-9-9\------------|-9-9\------------|-9-9\------------|-5-7-----5-7-----|
|-7-7\------------|-7-7\------------|-7-7\------------|-5-7-----3-5-----|
|---------0-0-----|---------0-0-----|---------0-0-----|-3-5-------------|

  E                                                     G A     C D
  e e     e e       e e     e e       e e     e e       e e     e e
|-----------------|-----------------|-----------------|-----------------|
|-----------------|-----------------|-----------------|-----------------|
|-9-9\------------|-9-9\------------|-9-9\------------|---------5-7-----|
|-9-9\------------|-9-9\------------|-9-9\------------|-5-7-----5-7-----|
|-7-7\------------|-7-7\------------|-7-7\------------|-5-7-----3-5-----|
|---------0-0-----|---------0-0-----|---------0-0-----|-3-5-------------|

  With phaser and slightly overdriven.
  E                 C                 DaddG             E
  He            e   q   q he          e Q     e q   e   h       E  E  e
|-----------------|-----------------|-----------------|-----------------|
|-----------------|-------1---------|---------3-------|-----------------|
|---------------0-|-----------------|-----------0-----|-----------------|
|-----------------|-----2-----------|---4-------------|-2-------2--0--2-|
|-2---------------|-3---------------|-5---------------|-----------------|
|-0---------------|-----------------|---------------0-|-----------------|

  E                 C                 D                 E
  q   e he          Q     he          e Q     e Q       h       E  qs
|-------0---------|-------3---------|-5-------2-------|-----------------|
|-----0-----------|-1---------------|---2-------3-----|-----------------|
|-1---------------|-----------------|-----------------|-----------------|
|-----------------|-----------------|-----------------|---------2--0----|
|-----------------|-----------------|-----------------|-----------------|
|-----------------|-----------------|-----------------|-0---------------|

  G                 A                 C       D         E
  he        e e e   q   e Q     e e   E  Q    E  se e   h       E  qs
|-3------------p--|--------------p--|-----------------|-----------------|
|-3---------3-3-0-|-2---3-2-----2-0-|-----------------|-----------------|
|-0---------------|-----------------|-----------------|-----------------|
|-0---------------|-----------------|----2-\-----4----|---------2--0----|
|-2---------------|-----------------|-3----\--5----h--|-----------------|
|-3---------------|-----------------|-------------3-4-|-0---------------|

                                      With delay
  G                 A                 C       Ds4       C       DsDs4
  he        e e e   q   e Q     e e   e e e e e e       e e e   e e
|-3------------p--|--------------p--|-----3-3-3-3-----|-3-3-3/--5-3-----|
|-3---------3-3-0-|-2---3-2-----2-0-|-----1-1-3-3-----|-1-1-1/--3-3-----|
|-0---------------|-----------------|---0-0-0-2-2-----|-0-0-0---0-2-----|
|-0---------------|-----------------|---2-------------|-----------------|
|-2---------------|-----------------|-3---------------|-----------------|
|-3---------------|-----------------|-----------------|-----------------|

  C       Ds4       E
  e e e   e e       e e               e e               e e
|-3-3-3---3-3-----|-----------------|-----------------|-----------------|
|-1-1-1---3-3-----|-9-9-------------|-9-9-------------|-9-9-------------|
|-0-0-0---2-2-----|-9-9-------------|-9-9-------------|-9-9-------------|
|-----------------|-9-9-------------|-9-9-------------|-9-9-------------|
|-----------------|-7-7-------------|-7-7-------------|-7-7-------------|
|-----------------|-----------------|-----------------|-----------------|

                    Echo repeats on 1/8 notes - - - - - - - - - - - - -
  G       D         E
  h       h         e e               e e               e e
|-3---------------|-----------------|-----------------|-----------------|
|-3-------7-------|-9-9-------------|-9-9-------------|-9-9-------------|
|-4-------7-------|-9-9-------------|-9-9-------------|-9-9-------------|
|-5-------7-------|-9-9-------------|-9-9-------------|-9-9-------------|
|-5-------5-------|-7-7-------------|-7-7-------------|-7-7-------------|
|-3---------------|-----------------|-----------------|-----------------|

                    Echo repeats on 1/8 notes - - - - - - - - - - - - -
  G       D         E
  h       h         e e               e e               e e
|-3---------------|-----------------|-----------------|-----------------|
|-3-------7-------|-9-9-------------|-9-9-------------|-9-9-------------|
|-4-------7-------|-9-9-------------|-9-9-------------|-9-9-------------|
|-5-------7-------|-9-9-------------|-9-9-------------|-9-9-------------|
|-5-------5-------|-7-7-------------|-7-7-------------|-7-7-------------|
|-3---------------|-----------------|-----------------|-----------------|

                    Echo repeats on 1/8 notes - - - - - - - - - - - - -
  G       D         E
  h       h         e e               e e               e e
|-3-------2-------|-----------------|-----------------|-----------------|
|-3-------3-------|-9-9-------------|-9-9-------------|-9-9-------------|
|-4-------2-------|-9-9-------------|-9-9-------------|-9-9-------------|
|-5-------4-------|-9-9-------------|-9-9-------------|-9-9-------------|
|-5-------5-------|-7-7-------------|-7-7-------------|-7-7-------------|
|-3---------------|-----------------|-----------------|-----------------|

  G       D         E
  e e e   e e e     ssss
|-3-3-3-----------|-----------------|
|-3-3-3---7-7-7---|-9999\-----------|
|-4-4-4---7-7-7---|-9999\-----------|
|-5-5-5---7-7-7---|-9999\-----------|
|-5-5-5---5-5-5---|-7777\-----------|
|-3-3-3-----------|-----------------|

2. Best I Can

----------------------------------------------------------------------------
                            BEST I CAN - Rush
----------------------------------------------------------------------------

Kenneth Dale Harris IV
kenny@kdharris.net
Standard Tuning
Main Riff.......................|Chorus.............|1st fill  |2nd fill
  A D A  G C G   D D            |       A A G G D D |after chrs|after chrs
e--------------|----------------|-----------3-3-2-2-|-/-14-14\-|-3-2-0-2-|
B--------------|----------------|-------2-2-3-3-3-3-|-/-15-15\-|-3-3-3-3-|
G--------------|-7-7------------|-------2-2-0-0-2-2-|-/-14-14\-|-2-2-2-2-|
D---7------5---|-7-7------------|-------2-2-0-0-0-0-|----------|-0-0-0-0-|
A-7-5-7--5-3-5-|-5-5-8-7-6-5~~~-|-------0-0-2-2-----|----------|---------|
E-5---5--3---3-|----------------|-7-6-5-----3-3-----|----------|---------|
Right before the solo!
e------------------------|
B------------------------|
G------------------------|
D-[7-7---7--]-9-9-9-9\]--|
A-[5-5-7-5-2]-7-7-7-7\]--|
E-----[5---0]------------|

e----------------------------| Thats the beginning to Alex's solo. The rest 
B----10-10-------------------|is just Alex Jammin' in "B" (penatonic). He
G-7^9-----9^7-7~---7h9p7-7~7~|played this type of solo alot in Rush's 
D---------------7h9-----9----|first few records.  Its a good place where
A----------------------------|you can place your identity, and create your 
E----------------------------|own solo. 


^ - bend
[]- palm mute everything inside
/ - slide up
\ - slide down
~ - vibrato

3. Beneath, Between, & Behind

----------------------------------------------------------------------------
                   "BENEATH BETWEEN AND BEHIND" - Rush
----------------------------------------------------------------------------

Kenneth Dale Harris IV
kenny@kdharris.net
Standard Tuning
Introduction      |  Main Riff
e--------|--------|----------------------------0-|
B-2-3-5~-|-2-3-5~-|-2-3-5-7-8-10---------------0-|
G-0-0-0--|-0-0-0--|-0-0-0-0-0-0----------------1-|
D-2-4-5~-|-2-4-5~-|-2-4-5-7-9-11-0h2p0h2p0-----2-|
A-0-0-0--|-0-0-0--|-0-0-0-0-0-0----------------2-|
E--------|--------|------------------------0-0-0-|
Chorus
e-------------------|-------------------|-------------------|
B-------------------|-------------------|-------------------|
G-------------------|-------------------|-------------------|
D----12----12-------|----12----12-------|----12----12-------|
A-12-10-12-10-12\---|-12-10-12-10-12\---|-12-10-12-10-12\---|
E-10----10----10\-0-|-10----10----10\-0-|-10----10----10\-0-|

e----------------------------|----------------------------|
B----------------------------|----------------------------|
G-5-5-5-4-4-4----------------|----------------------------|
D------------7-7-7-5-5-5-4-5-|-7-7-7-5-5-5-4-4-4----------|
A----------------------------|------------------7-7-7-5-4-|
E----------------------------|----------------------------|
(partial) solo 2X
e-----------------------------|-----------------------------|
B-----------------------------|-----------------------------|
G-----------------------2-3-5-|-----------------------4-5-7-|
D------2-2-2-3-3-3-5-5-5------|------4-4-4-5-5-5-7-7-7------|
A-3-3-3-----------------------|-5-5-5-----------------------|
E-----------------------------|-----------------------------|

e-----------------------------|-----------------------------| 
B-----------------------------|-----------------------------|
G-----------------------------|-----------------------------|
D-----------------------0-1-3-|-----------------------2-3-5-|
A------0-0-0-1-1-1-3-3-3------|------2-2-2-3-3-3-5-5-5------|
E-1-1-1-----------------------|-3-3-3-----------------------|
                                                                  
e-----------------------------|-----------------------------|
B-----------------------------|-----------------------------|
G-----------------------------|-----------------------------|
D-----------------------4-5-7-|-----------------------4-5-7-|
A------4-4-4-5-5-5-7-7-7------|------4-4-4-5-5-5-7-7-7------|
E-5-5-5-----------------------|-5-5-5-----------------------|
Play the Intro here.
Then play this.
e--------------------------------------2----|
B-2-2-2-2-----2-2-2-2----2-2-2-2-----2-3-9--|
G-2-2-2-2-----2-2-2-2----2-2-2-2-----2-2-9--|
D-2-2-2-2-----2-2-2-2----2-2-2-2-----2-0-9--|
A-0-0-0-0-----0-0-0-0----0-0-0-0-----0---7--|
E---------3-3---------3-3--------3-3-----0--|
Then you play the chorus again.

4. By-Tor & The Snow Dog

From jimmy@walrus.com Sun May  4 09:48:16 1997
Date: Wed, 23 Apr 1997 17:30:48 -0400 (EDT)
From: Jimmy Pena 
To: shpank@beachin.net, guitar@olga.net, jstryk@wt.net
Subject: TAB: 'By-Tor and The Snow Dog' by Rush

Rush - By-Tor & The Snow Dog

        From the CD 'Fly By Night'
                Written by Lee/Lifeson/Peart
                Mercury/Polygram Records 822542-2

        This tab is not 100% correct. Feel free to fix it. Standard
tuning [EADGBe] (low to high). The key signature is D, but it appears to
change to E in the middle, then back to D at the Epilogue. Yes the tab
has gotten messier but I think it's also gotten more accurate.

Jimmy Pena - jimmy@walrus.com

| = not a standard bar line; just used to separate music
~ = vibrato or held note
x = percussive note with no pitch; muted note
h = hammer on
p = pull off
s = slide
b = bend string up to indicated pitch/fret
r = release bend to indicated string/fret
/ = slide up from infinity
\ = slide down into infinity

Chord legend:

G   : [320033]
D   : [xx0232]
A   : [x0222x]
E   : [022100]
C   : [x3555x]
F   : [133211]
B   : [x2444x]
F/A : [x03211]

Progression:

[At the Tobes of Hades:]

      G        D      A     D          D      A       D  A
The tobes of Hades lit by flickering torch light.

      G      D        A        D      D    A   E
The nether world is gathered in the glare.

       G        D          A   D        D     A      D  A
Prince By-Tor takes the cavern to the north light.

      G      D      A      D         D  A  E
The sign of Eth is rising in the air.

  C   F  G                  F     G   D      C   F    G
By-Tor,         Knight of darkness,      centurion of evil,

F    G       D
     devil's prince.


[Across the Styx:]

  G         D     A        D        D    A      D  A
Across the River Styx, out of the lamp light.

     G   D       A       D     D    A  E
His Nemesis is waiting at the gate.

     G         D       A      D      D     A    D  A
The Snow Dog, ermine glowing in the damp night.

 G           D    A     D           D  A  E
Coal-black eyes shimmering with hate.

  C   F  G                F    G   D     C     F      G
By-Tor,         and the Snow Dog,      square for battle,

 F        G    D
Let the fray begin.

----

        Here is part of the middle section. I put the time down so you
can figure out where I am.


  1:11                   1:17                  1:23
   E~   A B B G~   D E E  E~   A B B G~  D E E  A~

 1:26        1:29 1:32          1:35          1:38
  C  G  C  G  A~   C  G  C  G    D  E  D  E    C  F/A  C  F/A

1:41                      1:47
  D  B  D  B   D  B  D  B  E~


[Guitar and effects for about 1:00]

Then there are a few E and D chords:

  2:55  2:58  3:01  3:04
   E     D     E     D

      G
e:---------------------------------------------------|
B:--------8-9\------8-9\------8-9-8------------------|
G:o-----7---------7---------7-------9-8-7-----------o|
D:o---9---------9---------9---------------9-7-6~~---o|
A:---------------------------------------------------|
E:---------------------------------------------------|

        There is another part in here but I just can't figure it out. It
sounds like the previous pattern but played higher up and with some
hammer-ons and pull-offs.

e:--------------------------------------------------------------|
B:--------------------------------------------------------------|
G:o-----5-6-7\-----5-6-7\----5-6-7-6-5-------------------------o|
D:o---7----------7---------7------------7-6-5------------------o|
A:--------------------------------------------7-6~--------------|
E:--------------------------------------------------------------|

e:--------------------------------------------------------------|
B:--------------------------------5--8--5-----------------------|
G:o-----5-6-7\-----5-6-7\----5-6-7---------7-6-5---------------o|
D:o---7----------7---------7---------------------7~------------o|
A:--------------------------------------------------------------|
E:--------------------------------------------------------------|

Stop and start E with drum fills:

e:-----------------------------------------------------------|
B:-----------------------------------------------------------|
G:o----9--9-----9--9--------9--9-----9--9-------------------o|
D:o----9--9-----9--9--------9--9-----9--9-------------------o|
A:-----7--7-----7--7--------7--7-----7--7--------------------|
E:--0--------0--------0--0--------0--------0-----------------|

Every note is gradually swelled via volume control:

e:--------------------------------------------------------------|
B:---8--10--13-----10~----8-10~--------8--10----8~--------------|
G:-7--------------------7---------7~----------7-----------------|
D:--------------------------------------------------------------|
A:--------------------------------------------------------------|
E:--------------------------------------------------------------|

e:-7--8---------------------------------------------------------|
B:---------8~------7~-------7~--8~------12~---10~---7~----------|
G:-------------7~------7~---6~--7~------14~------------6~--7~---|
D:--------------------------------------------------------------|
A:--------------------------------------------------------------|
E:---------------------------------(0)--------------------------|

e:-------|------------------------------------|
B:-7~----|------8~---7~-----------8~--7~------|
G:-------|o-9~--9~---7~--7~---9~--9~--7~-----o|
D:-------|o-9~-----------9~---9~-------------o|
A:-------|------------------------------------|
E:----0~-|-------------------------------0~---|

Full volume:

e:-------------10-----------------------------------------------|
B:-----10b12~~~~~~~~12r10----8-10-8--5~--8b10r8--5~-------------|
G:--------------------------------------------------------------|
D:--------------------------------------------------------------|
A:--------------------------------------------------------------|
E:--------------------------------------------------------------|

e:-----------10-11-12--15b17r15---10h12p10--12\---12--12--12\---|
B:-10-11-12-----------------------------------------------------|
G:--------------------------------------------------------------|
D:--------------------------------------------------------------|
A:--------------------------------------------------------------|
E:--------------------------------------------------------------|

e:-12--10---/17--15-12p11p10--12-12\--12--10--------------------|
B:-------------------------------------------12p11p10--9--------|
G:-------------------------------------------------------12-----|
D:--------------------------------------------------------------|
A:--------------------------------------------------------------|
E:--------------------------------------------------------------|

e:--------------------------------------------------------------|
B:------------------------------8-9-10-10-10-8\-----------------|
G:-7-8-9--12--12b14r12s9\-----9---------------------------------|
D:--------------------------------------------------------------|
A:--------------------------------------------------------------|
E:--------------------------------------------------------------|

e:--------------------------------------------------------------|
B:-----8--10b12r10--10-10-10--10b12r10---8----------------------|
G:-7-9--------------------------------------9-------------------|
D:-----------------------------------------------7--5\----------|
A:--------------------------------------------------------------|
E:--------------------------------------------------------------|

e:--------------------------------------------------------------|
B:--------------------------------------------------------------|
G:-----------------8---8h9~--9--9h11--11b12---11b12---11b12-----|
D:---5-5-5h7-7-7s9----------------------------------------------|
A:-7------------------------------------------------------------|
E:--------------------------------------------------------------|

e:------------------------------------------------------------------|
B:------------------------10-10--------------9h10p9--9h10p9--9h10p9-|
G:-11b12p9----9-11-11--11-------9h11--9-7-7\------------------------|
D:------------------------------------------------------------------|
A:------------------------------------------------------------------|
E:------------------------------------------------------------------|

e:-15b16---13--10h12p10--------------10-------------------------|
B:-----------------------8~---10b12~~~~~~12r10-----10b12~~~-----|
G:--------------------------------------------------------------|
D:--------------------------------------------------------------|
A:--------------------------------------------------------------|
E:--------------------------------------------------------------|

e:--------------------------------------------------------------|
B:-10-8-10-10---5---5--8\---------------------------------------|
G:----------------8---------------------------------------------|
D:--------------------------------------------------------------|
A:--------------------------------------------------------------|
E:--------------------------------------------------------------|

Then play:

e:----------------------------------------|--------------------------|
B:----------------------------------------|--------------------------|
G:----------------------------------------|--------------------------|
D:--5-5-6-7---5-5-6-7---5-5-6-7-6-5-------|--5-5-6-7---5-5-6-7-------|
A:----------------------------------7~----|--------------------------|
E:----------------------------------------|--------------------------|

e:-------------------------------------------------------------------|
B:-------------------------------------------------------------------|
G:-------------------------------------------------------------------|
D:--5-5-6-7-6-5-6-5--------------------------------------------------|
A:------------------7\-----------------------------------------------|
E:-------------------------------------------------------------------|


[Epilogue:]

     G        D      A      D      D   A     D  A
The battle's over and the dust is clearing.

    G      D       A        D        D     A   E
Disciples of the Snow Dog sound the knell.

    G      D       A     D       D   A    D  A
Rejoicing echoes as the dawn is nearing.

 G      D     A      D          D   A   E
By-Tor in defeat retreats to hell.

 C      F   G          F    G  D
Snow Dog       is victorious!

     C       F      G       F      G     D
The land of the Overworld     is saved again,

 F      G     D
   is saved again,


     F       G          D
e:------------------|---2---------------------------------------|
B:-------1-------3--|---3--------7------------------------------|
G:-----2-------4----|---2---or---7------------------------------|
D:---3-------5------|---0--------7------------------------------|
A:------------------|------------5------------------------------|
E:------------------|-------------------------------------------|

Repeat whole thing twice
Then repeat first half twice, then whole thing again one last time

5. Fly By Night

Rush- Fly By Night

Guitar Tab

Taken from the album "Fly By Night" (1975)

Key:
9b(11): First fret bended to the fret in parenthesis (hammer)
~ : Indicates Vibrato

Riff 1:
E-2-2----3-3------------3-----3-------3--------------------------|
b-3-3----3-3------------3-----3-------3---2--0-2-----------------|
g-2-2----x-x------------0-----0-------0---2--0-2-----------------|
d-0-0----2-2----------2-----0-------0-----2--0-2-----------------|
a---------------0-2-3-----2-----0-1-------0--0-0-----------------|
e----------------------------------------------------------------|


Riff 2: (Start a new chapter...)
E-2-----2------5-----5-------7--8--10-----------10---------------|
b---3------3-----6------6----8--8--10--10---10-------------------|
g-----2------2-----5------5--7--9--11-----11--11-----------------|
d----------------------------------------------------------------|
a----------------------------------------------------------------|
e----------------------------------------------------------------|

E-0-----0-------------0---------7--7--7~~------------------------|
b---1------1----1---1----1------8--8--8~~------------------------|
g-----2------2----2--------2----7--7--7~~------------------------|
d----------------------------------------------------------------|
a----------------------------------------------------------------|
e----------------------------------------------------------------|


Riff 3: (Quiet and pensive...)
E-2-----2----2--5----5----5---7--8--10-----------10--------------|
b---3------3-----6------6-----8--8--10--10---10------------------|
g-----2-----------5-----------7--9--11-----11--11----------------|
d----------------------------------------------------------------|
a----------------------------------------------------------------|
e----------------------------------------------------------------|

E-0-----0-------------0---------7--7--7~~------------------------|
b---1------1----1---1----1------8--8--8~~------------------------|
g-----2------2----2--------2----7--7--7~~----------(Drums Here)--|
d----------------------------------------------------------------|
a----------------------------------------------------------------|
e----------------------------------------------------------------|


Chorus 1:  (Fly by night...)
E-3--3--2--2--------3----14-14----3--3--2--2---------------------|
b-3--3--3--3--------3----15-15----3--3--3--3--2-0-2---0-2--------|
g-0--0--2--2--------0----14-14----0--0--2--2--2-0-2---0-2--------|
d-0--0--0--0--------0-------------0--0--0--0--2-0-2---0-2--------|
a-2--2--------3-2-0-x-------------2--2--------0-0-0---0-0--------|
e-3--3--------------3-------------3--3---------------------------|

E-3--3--2--2--------3-----------3-----3-------3------------------|
b-3--3--3--3--------3-----------3-----3-------3--2--0-2----------|
g-0--0--2--2--------0-----------0-----0-------0--2--0-2----------|
d-0--0--0--0--------0---------2-----0-------0----2--0-2----------|
a-2--2--------3-2-0-x---0-2-3-----2-----0-1------0--0-0----------|
e-3--3--------------3--------------------------------------------|


Chorus 2:  (Fly by night...)
E-3--3--2--2--------3----14-14----3--3--2--2---------------------|
b-3--3--3--3--------3----15-15----3--3--3--3--2-0-2---0-2--------|
g-0--0--2--2--------0----14-14----0--0--2--2--2-0-2---0-2--------|
d-0--0--0--0--------0-------------0--0--0--0--2-0-2---0-2--------|
a-2--2--------3-2-0-x-------------2--2--------0-0-0---0-0--------|
e-3--3--------------3-------------3--3---------------------------|

E-3--3--2--2--------3-----------3-----3-------3------------------|
b-3--3--3--3--------3-----------3-----3-------3------------------|
g-0--0--2--2--------0-----------0-----0-------0------------------|
d-0--0--0--0--------0---------2-----0-------0--------------------|
a-2--2--------3-2-0-x---0-2-3-----2-----0-1------0---------------|
e-3--3--------------3--------------------------------------------|

E---------3-----3-----3------------------------------------------|
b---------3-----3-----3--2--0-2----------------------------------|
g---------0-----0-----0--2--0-2----------------------------------|
d-------2-----0-----1----2--0-2----------------------------------|
a-0-2-3-----2-----0------0--0-0----------------------------------|
e----------------------------------------------------------------|


Chorus 3:  (Fly by night...)
E-3--3--2--2--------3----14-14----3--3--2--2---------------------|
b-3--3--3--3--------3----15-15----3--3--3--3--2-0-2---0-2--------|
g-0--0--2--2--------0----14-14----0--0--2--2--2-0-2---0-2--------|
d-0--0--0--0--------0-------------0--0--0--0--2-0-2---0-2--------|
a-2--2--------3-2-0-x-------------2--2--------0-0-0---0-0--------|
e-3--3--------------3-------------3--3---------------------------|

E-3--3--2--2--------3-----------3-----3-------3------------------|
b-3--3--3--3--------3-----------3-----3-------3------------------|
g-0--0--2--2--------0-----------0-----0-------0------------------|
d-0--0--0--0--------0---------2-----0-------0--------------------|
a-2--2--------3-2-0-x---0-2-3-----2-----0-1------0---------------|
e-3--3--------------3--------------------------------------------|

E---------3-----3-----3--------------3-----3-------3----------2--|
b---------3-----3-----3--------------3-----3-------3--2--0-2--3--|
g---------0-----0-----0--------------0-----0-------0--2--0-2--2--|
d-------2-----0-----1--------------2-----0-------0----2--0-2--0--|
a-0-2-3-----2-----0------0---0-2-3-----2-----0-1------0--0-0-----|
e----------------------------------------------------------------|


Guitar Solo (Played over a second guitar with riff 1)
E----------------------------------------------------------------|
b----------------------------------------------------------------|
g-9b(11)---9b(11)-----9-7---7-7---9-7----5~--4~--2-3-------------|
d-------------------9-----9-----9-----9--------------2p3-2p3-2-0-|
a----------------------------------------------------------------|
e----------------------------------------------------------------|

E-------------------------------7-------7------7-9-10-12b(14)----|
b-----------------------7-9-10----10-7----10---------------------|
g------7-9b(11)--9b(11)------------------------------------------|
d--7-9-----------------------------------------------------------|
a----------------------------------------------------------------|
e----------------------------------------------------------------|


E-12-9-7-10-9----15-17b19~~-----------------------------------------------|
b-------------10----------------------------------------------------------|
g---------------------------------7-7-7-7-7-7-7-7-7-----7-7-7-7-7-7-7-7-7-|
d-----------------------------7-9-------------------7-9-------------------|
a-------------------------------------------------------------------------|
e-------------------------------------------------------------------------|

E-------------------------------------------------------------------------|
b----------------------------------10b12-10b12-10b12~---10-9-7------------|
g------7-9-7---7-9-7---7-9-7---7----------------------7--------9-7---7----|
d--7-9-------9-------9-------9-------------------------------------9---9--|
a-------------------------------------------------------------------------|
e-------------------------------------------------------------------------|

E-12b14-12b14-12b14~-12-10-12-10---10-12-10---10------10-12-12-10----------|
b-------------------------------12----------12---10-12-----------12-12-10--|
g------------------------------------------------------------------------11|
d--------------------------------------------------------------------------|
a--------------------------------------------------------------------------|
e--------------------------------------------------------------------------|


E---------------------------------------------|
b---------------------------------------------|
g-11-9-7-----7-9-7----------------------------|
d---------9---------9-7-----------------------|
a-----------------------9--7-5----------------|
e------------------------------7~~------------|


Song Progression:
Riff 1 (5 Times)
Chorus 1
Riff 1 (3 Times)
Chorus 1
Guitar Solo
Chorus 1
Riff 2
Riff 3
Chorus 2
Chorus 3

-Chorus 1, 2 and 3 are barely different, its just the endings that repeat. If you play them you'll see.

-This song is great, have fun playing it.

-Rock on

6. Making Memories

Date: Sat, 7 Oct 1995 18:01:44 -0700 (MST)
From: "Anthony John Zimmermann" <97445@ef.gc.maricopa.edu
Subject: TAB: /r/rush/making_memories.tab

Rush
Making Memories
Fly By Night
Music and Lyrics by Lee, Lifeson, and Peart

Transcribed by Tony Zimmermann, <97445@ef.gc.maricopa.edu
comments welcome

Acoustic 6-string (12-string recommended)
Verses:
---2--------5--------0-------------2--------5--------0----------------|
---3--------6--------3-------------3--------6--------3----------------|
---2---//---5---//---0---//---//---2---//---5---//---0---//---//------|
---0--------0--------2-------------0--------0--------2----------------|
---------------------3-------------------------------3----------------|
----------------------------------------------------------------------|
   D        F/D      Cadd9         D        F/D      Cadd9

Bridge:
---7-------------2-------------7-------------2------------------------|
---8-------------3-------------8-------------3------------------------|
---7---//---//---2---//---//---7---//---//---2---//---//--------------|
---0-------------0-------------0-------------0------------------------|
----------------------------------------------------------------------|
----------------------------------------------------------------------|
   G/D           D             G/D           D

---7-------------2-------------5------------12------------------------|
---8-------------3-------------6------------13------------------------|
---7---//---//---2---//---//---5---//---//--12---//---//--------------|
---0-------------0-------------0-------------0------------------------|
----------------------------------------------------------------------|
----------------------------------------------------------------------|
   G/D           D             F/D          C/D

Slide Solo:
----------------------------------------------------------------------|
--------12----12-\-10-/-12-\-10-/-12-\-10----10-\-------(7)-----------|
---------------------------------------------------7----(7)-----------|
---/12--------------------------------------------------(7)-----------|
----------------------------------------------------------------------|
----------------------------------------------------------------------|

---/15---15-\-14-/-15-\-14-/-15-\-14-------/-17-----------------------|
-------------------------------------/-15-----------------------------|
----------------------------------------------------------------------|
----------------------------------------------------------------------|
----------------------------------------------------------------------|
----------------------------------------------------------------------|

----------------------------------------------------------------------|
---------12---/-15---\-12------------------------tr./\/\/\/\/-----10--|
---------------------------12--\--7---------7----10-\-9-/-10-\-9------|
---/-12--------------------------------/-7----------------------------|
----------------------------------------------------------------------|
----------------------------------------------------------------------|

----------------------------------------------------------------------|
---tr./\/\/\/\/\/---------------------5----------------/-13-\-12---15-|
---5-\-4-/-5-\-4-/-5-\-4-/-5-\-4-/-5--------/-7--------tr./\/\/\/-----|
---------------------------------------------------/------------------|
----------------------------------------------------------------------|
----------------------------------------------------------------------|

-----------------------------------------------------------------------|
-----------------------------------------------------------------------|
---/-10-\-7----7-\-5-/-7-\-5-/-10-----10-\-9-/-10--10-\-7--------------|
----------------------------------------------------------0-/-7-/-12---|
-----------------------------------------------------------------------|
-----------------------------------------------------------------------|

Outro:
------------------------------------------7--10----------------10--12-|
-----------------------------------7--10---------------10--12---------|
-------------------------7--9--10-------------------11----------------|
-------------------7--9-----------------------------------------------|
----------7--8--9-----------------------------------------------------|
---7--10--------------------------------------------------------------|
Vamp over D Blues, include Alex's favorite Fly by Night Lead

7. Rivendell

From: fkam_ltd@uhura.cc.rochester.edu (Kevin McFadden)
Subject: TAB: Rivendell by RUSH
Date: 10 May 92 02:08:51 GMT

Here is the tab to RIVENDELL by RUSH.  I don't have the tape anymore so you
will have to check how many times and the order the segments are played.

It is a very easy, introductory type acoustic piece (i.e. FOR BEGINNERS, it
is the first song I could play beginning to end, except for Living after
Midnight:)

Rivendell by RUSH: From the album Flight by Night

Transcribed by Kevin McFadden

+-----------|-----------|-------_-_-------|--/-2---||--5--------|--5--------+
+--3-----3--|--2-----2--|--1---0-1-0------|--\-3---||------3----|--3---3----+
+*----0-----|----0------|----0-------2-0--|--/-2---||*---4---4--|----4---4--+
+*------0---|------0----|-----------------|--\-0---||*-0--------|-----------+
+--2-----2--|--1-----1--|--0--------------|--/-0---||-----------|-----------+
+-----------|-----------|-----------------|--------||-----------|-----------+

+--5--------|--5-----5--|--3--------|--3--------|--3--------|--3-----3--+
+------3----|--3---3----|----0---0--|----0---0--|----0---0--|----0------+
+----4---4--|----4------|------5----|--5---5----|------5----|--5---5----+
+--0--------|--------0--|--0--------|-----------|--0--------|--------0--+
+-----------|-----------|-----------|-----------|-----------|-----------+
+-----------|-----------|-----------|-----------|-----------|-----------+

+--3--------|--3--------|--0--------|--0-----0--|--0--------|-----------+
+----0---0--|----0------|----1---1--|----1------|----1------|--------1--+
+------0----|------0----|------0----|------0----|------0----|------0----+
+--2--------|--------2--|--3--------|--------2--|--------2--|----2------+
+-----------|-----------|-----------|-----------|--3--------|--3--------+
+-----------|-----------|-----------|-----------|-----------|-----------+

                         X2    X2
           _ _
+--2------2-3-2----|---/-2---|----||-------------||---------------------+
+----3----------3--|---\-3---|----||-------------||---------------------+
+------2-----------|---/-2--*|---*||------------*||---------------------+
+--0---------------|---\-0--*|---*||------------*||---------------------+
+------------------|---/-0---|----||-------------||---------------------+
+------------------|---------|----||-------------||---------------------+


                                             X2
+--3---------|--3--------|--3--------|--\--0---|--1--------|--3-----3--+
+*----3---3--|----3------|----3------|--/--2--*|----1---1--|----3-0----+
+------0-----|------0----|------0----|--\--2---|------2----|-----------+
+*-----------|--------0--|--------0--|--/--2--*|--3--------|--0--------+
+--3---------|--2--------|-----------|--\--0---|-----------|-----------+
+------------|-----------|--3--------|---------|-----------|-----------+

        _ _
+--2---2-3-2----|--\--2--|--0--------|--0--------|--3--------|--\--0--+
+------------3--|--/--3--|----1---1--|----1------|----3------|--/--2--+
+---------------|--\--2--|------2----|------0----|------0----|--\--2--+
+--0-0----------|--/--0--|--3--------|--------2--|--------0--|--/--2--+
+---------------|--\--0--|-----------|--3--------|-----------|--\--0--+
+---------------|--------|-----------|-----------|--3--------|--------+

                                                          _ _
+-----------|-----------|-------_-_-------|--/-2--|--2-2-2-3-2--------+
+--3-----3--|--2-----2--|--1---0-1-0------|--\-3--|------------3------+
+*----0-----|----0------|----0-------2-0--|--/-2--|--------------2----+
+*------0---|------0----|-----------------|--\-0--|----------------0--+
+--2-----2--|--1-----1--|--0--------------|--/-0--|-------------------+
+-----------|-----------|-----------------|-------|-------------------+

+---------------|------------3--|-----+
+---------------|------3---3----|-----+
+------------0--|----0---0------|--0--+
+------0---0----|--0------------|-----+
+----2---2------|---------------|-----+
+--3------------|---------------|--3--+
   ===== =====     ===== =====
     3     3         3     3

KEY:
     _ _
    2 3 2   : Hammer on, Pull off

    =====   : Triplet
      3

      \
      /
      \     : Strum slowly
      /
      \
      /

8. In The End

Rush - In The End

        From the CD 'Fly By Night'
                Written by Lee/Lifeson/Peart
                Mercury/Polygram Records 822542-2

        This song opens with an acoustic 12 string playing in D, however
there is some sort of electronic detuning which makes it appear to be in C.
I will tab out the intro in C but be aware that it is played with the same
fingering as Riff 2. Also, Riff 1 is played in the same position as Riff 4,
but with the same electronic detuning. There is phaser almost throughout
this song, but I will try to notate specifically where it appears.
Previously tabbed by Tony Zimmerman .

| = not a standard bar line; just used to separate music
~ = vibrato or held note
x = percussive note with no pitch; muted note
h = hammer on
p = pull off
s = slide
b = bend string up to indicated pitch/fret
r = release bend to indicated string/fret
/ = slide up from infinity
\ = slide down into infinity
[5] = artificial harmonic (use thumb to follow through the pick attack)
o  \_
o  /   repeat sign (always look for these!)


[Intro] - strum freely (notes in ()'s are not played on every repeat)
    C     F         Eb    Bb          C     F
e:--0-0---1-1--1---------1-1---1------0-0---1-1--1------------------------|
B:--1--1--1--1--1---4-4--3---3--3---3-1---1-1--1--1-----------------------|
G:--0-----2---------3-3--3--------3---0-----2-----------------------------|
D:--2-----3-------3-5-5--3------------2-----3-------3-----0-3-(0)----3----|
A:--3-----3---------6-6--1------------3-----3-----------1---------0-3---3-|
E:--------1---------------------------------1--------(3)---------------3--|

[Riff 1] - strum freely
    Am                 F             Am              F  G
e:--0-0-----0-0-----0--1-1--1-1------0-0-----0-0-----1-----------|
B:--1-1-----1-1-----1--1--1-1--1-----1-1-----1-1-----1--3--------|
G:--2-2-----2-2-----2--2----2--------2-2-----2-2-----2--4--------|
D:--2-2-0h2-2-2-0h2-2--3----3----0h3-2-2-0h2-2-2-0h2-3--5--------|
A:--0-0-----0-0-----0--3----3--------0-0-----0-0-----3--5--------|
E:---------------------------------------------------------------|

[Riff 2] - I can usually hear a higher riff or single note run over this
        riff; it could be another guitar playing the octave or notes
        related the chord

    D     G    F     C     D     G     (with phaser)
e:--2--2--3~---------0~----2--2--3--3--------------------------------|
B:--3--3--3~---1--1--1~----3--3--3--3--------------------------------|
G:--2--2--0~---2--2--0~----2--2--0--0----------0------0--------------|
D:--0--0--0~---3--3--2~----0--0--0--0--------2------0-----(0)--------|
A:--------2~---3--3--3~----------2--2---0--3------2------0-----------|
E:--------3~---1--1--------------3--3--------------------------------|

[Riff 3] - The last note of Riff 2 is not played when this riff follows it
                           _________________________
        F      A   F       |1.  G      |2. G  D    |
e:---|---------------------|-----------|-----------|
B:---|---1--1-------1--1---|----3-3~---|---3--7~---|
G:---|o--2--2---6---2--2---|----4-4~--o|---4--7~---|
D:---|o--3--3---7---3--3---|----5-5~--o|---5--7~---|
A:---|---3--3---7---3--3---|----5-5~---|---5--5~---|
E:-0-|---1--1---5---1--1---|----3-3~---|---3-------|

[Riff 4]
    Bm            G              Bm         G     A
e:--2--2--2-2--------------------2-2--2--2---------------------------|
B:--3--3--3-3-----3--3---3---3---3-3--3--3--3--3--5--5---------------|
G:--4--4--4-4-----4--4---4---4---4-4--4--4--4--4--6--6---------------|
D:--4--4--4-4-----5--5---5---5---4-4--4--4--5--5--7--7---------------|
A:--2--2--2-2-----5--5---5---5---2-2--2--2--5--5--7--7---------------|
E:----------------3--3---3---3--------------3--3--5--5---------------|


Song progression:

[Intro] x1

[Intro] x2 /w lyrics:

Well I can see what you mean, it just takes me longer.
And I can feel what you feel, it just makes you stronger.

[Riff 1] x1:

Well you can take me for a little while.
You can take me, you can make me smile in the end.

[Intro] x2

(pitch electronically shifted upward from C to D)

[Riff 2] x2

[Fill 1] over [Riff 2]:
                                                      etc
e:---------------------------------------------------------|
B:-15-x-x-15-x-x-15-x-x-15-x-x-15-x-x-15-x-x-15-x-x--------|
G:---------------------------------------------------------|
D:---------------------------------------------------------|
A:---------------------------------------------------------|
E:---------------------------------------------------------|

[Riff 2] x2 /w lyrics:

Well I can see what you mean, it just takes me longer.
And I can feel what you feel, it just makes you stronger.

[Riff 3] x2 /w lyrics:

I know, I know, I know. Oh the feeling grows.
I see, I see, I see. Ooh it's got to be.

[Riff 2] x1

[Riff 2] x2 /w lyrics:

I can do what you do, you just do it better.
And I can cry like you cry, it just makes me sadder.

[Riff 3] x2 /w lyrics:

I know, I know, I know. Oh the feeling grows.
I see, I see, I see. Ooh it's got to be.

[Riff 2] x1

[Riff 2] x4 under [Guitar Solo]:

e:----------------------------------------------------------------------|
B:----------------------------------------------------------------------|
G:-14b16--14~--14b16--14-12-11h12p11-12p11h12p11--14p11-----------------|
D:------------------------------------------------------12~~--10-12-----|
A:----------------------------------------------------------------------|
E:----------------------------------------------------------------------|

e:--------------------------------------------------------------------|
B:--------------------------------------------------------------------|
G:------------------------7-------------------------------------------|
D:-10p9h10p9-10p9-7--9-10----10-9-7----7-------------7----------------|
A:----------------------------------10---10-9-7-9-10---10-9-7-9-7-----|
E:----------------------------------------------------------------10-8|

e:------|---------------------------------------------------------------|
B:------|---------------------------------------------------------------|
G:------|-----------------------------------10-12-11-----------------7--|
D:------|-----------------------10----10-12----------12-11-[12]--7-9----|
A:------|-------8----10-8-10s12----12-----------------------------------|
E:-10~~-|--8h10---10----------------------------------------------------|

e:-------------------------------10-12b14~~14~~-12b14~~-12b14~14~14r12---|
B:----------------------10--10h12----------------------------------------|
G:-9b11r9---7-7~~--9s11--------------------------------------------------|
D:--------9--------------------------------------------------------------|
A:-----------------------------------------------------------------------|
E:-----------------------------------------------------------------------|

                                 (gtr joined by a kazoo here?)
e:-12-10-----------------------|-----------------------------------------|
B:-------12-10-----------------|-----------------------------------------|
G:-----------------------------|-12h14-14~-14-12-14-12-14-14b16-14-14b16-|
D:-------------12~-------12-12-|-----------------------------------------|
A:-----------------12h14-------|-----------------------------------------|
E:-----------------------------|-----------------------------------------|

e:------------|----------------------------------------------------------|
B:------------|----------------------------------------------------------|
G:-14-14b16~~-|-14b17-14b17-14b17-14b17r14-14p12-12p11-11h12p11-14p11----|
D:------------|-------------------------------------------------------12~|
A:------------|----------------------------------------------------------|
E:------------|----------------------------------------------------------|

e:----------------------------------------------------------|-------------|
B:----------------------------------------------15~~\-------|-------------|
G:----------12p11----12p11----12p11----12p11----------------|--12p11------|
D:-12-12-12-------12-------12-------12-------12-------12-12-|--------12---|
A:----------------------------------------------------------|-------------|
E:----------------------------------------------------------|-------------|

e:-----------------------------------------|----------------------------|
B:-----------------------------------------|----------------------------|
G:--12p11-----12p11----12p11---------------|-12p11----12p11----12p11----|
D:--------12--------12-------12-12~-12-12--|-------12-------12-------12-|
A:-----------------------------------------|----------------------------|
E:-----------------------------------------|----------------------------|

e:---------------------------------------------------|
B:---------------------------------------------------|
G:-12p11----12p11----12p11---------------------------|
D:-------12-------12-------12--12-12---10h12~~~\-----|
A:---------------------------------------------------|
E:---------------------------------------------------|

[Riff 4] x1 /w lyrics:

You can take me for a little while.
You can take me you can make me smile in the end.

[Riff 2] x1

[Riff 2] x2 /w lyrics:

Well I can shine like you shine, it don't make me brighter.
But if I think like you think, it don't make my load much lighter.

[Riff 2] x1

(Now the phaser is used in an opposite fashion - for the chords and it is
        left out from the single notes.)

[Riff 2] x1 mu
Добавлено: 08.03.2012
Другие материалы по этой песне:
  • Аккорды и текст

Страница создана 08.03.2012
http://primanota.ru/rush/fly-by-night-album-chords.htm
Привет, Гость.
Предлагаем пройти революционный курс по гитаре.
Подарок от PrimaNota.Ru, забирай!