PrimaNota.ru - самый крупный в мире бесплатный архив песенных текстов, аккордов, табулатур и нот


Royal Blood - Hole - таба, бас-таба, видео

Регистрация Запомнить меня
Войти через:  Facebook Google Twitter Vk Yandex Mail.ru

Royal Blood - Hole - таба, бас-таба, видео

Печатать
Просмотров: 375
-------------------------------------------------------------------------------
                             Hole - Royal Blood
-------------------------------------------------------------------------------
Tabbed by: Andrew_Johnnnn
E-mail: andrewhodkinson@hotmail.co.uk

Tuning: Half-Step Down Eb,Ab,Db,Gb,Bb,eb

Intro:
e|---------------------------------------------------------------------------|
B|---------------------------------------------------------------------------|
G|---------------------------------------------------------------------------|
D|---------------------------------------------------------------------------|
A|---------------------------------------------------------------------------|
E|-12--12\--0---12--12\--0---12-12-0---12--12\--0---12--12\--0---12-12-0-----|

e|---------------------------------------------------------------------------|
B|---------------------------------------------------------------------------|
G|---------------------------------------------------------------------------|   (Intro x2)
D|---------------------------------------------------------------------------|
A|---------------------------------------------------------------------------|
E|-12--12\-/9~--12--12\-/9~--12--12--9~---12--12\-/8~--12--12\-/8~--14-15-14-|


Main Riff/Verse:
e|---------------------------------------------------------------------------|
B|---------------------------------------------------------------------------|
G|------14p13----------------------------------------------------------------|
D|------------14-14-12-14p12-------------------------------------------------|
A|---------------------------14\---------------------------------------------|
E|-0-0----------------------------6--6-6p0--3--3--0-3-0-3/-------------------|

e|---------------------------------------------------------------------------|
B|---------------------------------------------------------------------------|
G|------14p13----------------------------------------------------------------|
D|------------14-14-12-14/16\14\---------------------------------------------|
A|---------------------------------------------------------------------------|
E|-0-0----------------------------6--6-6-8--3--3--0-3-0-3/-------------------|

e|---------------------------------------------------------------------------|
B|---------------------------------------------------------------------------|
G|------14p13----------------------------------------------------------------|
D|------------14-14-12-14p12-------------------------------------------------|
A|---------------------------14\---------------------------------------------|
E|-0-0----------------------------6--6-6p0--3--3--0-3-0-3/-------------------|

e|---------------------------------------------------------------------------|
B|---------------------------------------------------------------------------|
G|------14p13----------------------------------------------------------------|
D|------------14-14-12-14p12-------------------------------------------------|
A|---------------------------14\---------------------------------------------|
E|-0-0----------------------------6--6-6-8--3--3--0-3-0-3/-------------------|

e|---------------------------------------------------------------------------|
B|---------------------------------------------------------------------------|
G|------14p13----------------------------------------------------------------|
D|------------14-14-12-14p12-------------------------------------------------|
A|---------------------------14\---------------------------------------------|
E|-0-0----------------------------6--6-6-8--3--3--0-3-0-3/-------------------|

e|---------------------------------------------------------------------------|
B|---------------------------------------------------------------------------|
G|------14p13----------------------------------------------------------------|
D|------------14-14-12-14p12-------------------------------------------------|
A|---------------------------14\---------------------------------------------|
E|-0-0----------------------------6--6-6p0--3--3--0-3-0-3--5--5--3-5-3-5-555-|

e|---------------------------------------------------------------------------|
B|---------------------------------------------------------------------------|
G|---------------------------------------------------------------------------|
D|---------------------------------------------------------------------------|
A|---------------------------------------------------------------------------|
E|-88888888------------------------------------------------------------------|


Chorus:
e|---------------------------------------------------------------------------|
B|---------------------------------------------------------------------------|
G|---------------------------------------------------------------------------|
D|---------------------------------------------------------------------------|
A|---------------------------------------------------------------------------|
E|-3-2-0--/5~-----0--3-2---0--3-2---0---------0--3-2-0--/5~-----0--5-3--/7---|

e|---------------------------------------------------------------------------|
B|---------------------------------------------------------------------------|
G|---------------------------------------------------------------------------|
D|---------------------------------------------------------------------------|
A|---------------------------------------------------------------------------|
E|-7-7-7-7-7-7-7-7\----------------------------------------------------------|


Verse 2:
e|---------------------------------------------------------------------------|
B|---------------------------------------------------------------------------|
G|------14p13----------------------------------------------------------------|
D|------------14-14-12-14p12-------------------------------------------------|
A|---------------------------14\---------------------------------------------|
E|-0-0----------------------------6--6-6p0--3--3--0-3-0-3/-------------------|

e|---------------------------------------------------------------------------|
B|---------------------------------------------------------------------------|
G|------14p13----------------------------------------------------------------|
D|------------14-14-12-14p12-------------------------------------------------|
A|---------------------------14\---------------------------------------------|
E|-0-0----------------------------6--6-6-8--3--3--0-3-0-3/-------------------|

e|---------------------------------------------------------------------------|
B|---------------------------------------------------------------------------|
G|------14p13----------------------------------------------------------------|
D|------------14-14-12-14p12-------------------------------------------------|
A|---------------------------14\---------------------------------------------|
E|-0-0----------------------------6--6-6-8--3--3--0-3-0-3/-------------------|

e|---------------------------------------------------------------------------|
B|---------------------------------------------------------------------------|
G|------14p13----------------------------------------------------------------|
D|------------14-14-12-14p12-------------------------------------------------|
A|---------------------------14\---------------------------------------------|
E|-0-0----------------------------6--6-6p0--3--3--0-3-0-3--5--5--3-5-3-5-555-| 

e|---------------------------------------------------------------------------|
B|---------------------------------------------------------------------------|
G|---------------------------------------------------------------------------|
D|---------------------------------------------------------------------------|
A|---------------------------------------------------------------------------|
E|-88888888------------------------------------------------------------------|


Chorus 2:
e|---------------------------------------------------------------------------|
B|---------------------------------------------------------------------------|
G|---------------------------------------------------------------------------|
D|---------------------------------------------------------------------------|
A|---------------------------------------------------------------------------|
E|-3-2-0--/5~-----0--3-2---0--3-2---0---------0--3-2-0--/5~-----0--3-2---0---|


Middle 8:
e|---------------------------------------------------------------------------|
B|---------------------------------------------------------------------------|
G|---------------------------------------------------------------------------|
D|---------------------------------------------------------------------------|
A|---------------------------------------------------------------------------|
E|-0-----------------------0(RING OUT)---------------------------------------|


Outro:
e|---------------------------------------------------------------------------|
B|---------------------------------------------------------------------------|
G|---------------------------------------------------------------------------|
D|---------------------------------------------------------------------------|
A|---------------------------------------------------------------------------|
E|-12--12\--0---12--12\--0---12-12-0---12--12\--0---12--12\--0---12-12-0-----|

e|---------------------------------------------------------------------------|
B|---------------------------------------------------------------------------|
G|---------------------------------------------------------------------------|   (Outro x2)
D|---------------------------------------------------------------------------|
A|---------------------------------------------------------------------------|
E|-12--12\-/9~--12--12\-/9~--12--12--9~---12--12\-/8~--12--12\-/8~--14-15-14-|

e|---------------------------------------------------------------------------|
B|---------------------------------------------------------------------------|
G|---------------------------------------------------------------------------|
D|---------------------------------------------------------------------------|
A|---------------------------------------------------------------------------|
E|-0---0-(RING OUT/BEND GUITAR NECK/TREMOLO)---------------------------------|



Thanks very much! Hopefully this comes in handy!

I also have a cover on YouTube if you'd like to listen in context: 
https://www.youtube.com/watch?v=_GSV8D9_npg

Enjoy!

************************************

| /   slide up
| \   slide down
| h   hammer-on
| p   pull-off
| ~   vibrato
| +   harmonic
| x   Mute note
| b   Bend
| pb  Pre-bend
| br  Bend release
| pbr Pre-bend release
| brb Bend release bend

************************************
Добавлено: 31.08.2015
Другие материалы по этой песне:
  • Аккорды и текст

Страница создана 07.11.2014
http://primanota.ru/royal-blood/hole-chords.htm
Привет, Гость.
Предлагаем пройти революционный курс по гитаре.
Подарок от PrimaNota.Ru, забирай!