PrimaNota.ru - самый крупный в мире бесплатный архив песенных текстов, аккордов, табулатур и нот


Riverside - Saturate Me - таба, видео

Регистрация Запомнить меня
Войти через:  Facebook Google Twitter Vk Yandex Mail.ru

Riverside - Saturate Me - таба, видео

Печатать
Просмотров: 49
Авторы музыки: Mariusz Duda
Авторы текста: Mariusz Duda
-------------------------------------------------------------------------------
                             Saturate Me - Riverside
-------------------------------------------------------------------------------

  
Tabbed by: RwR

Tuning: Standard

  x2
  
e|---------------------------------------------------------------------------|
B|---------------------------------------------------------------------------|
G|---------------------------------------------------------------------------|
D|---------------------------------------------------------------------------|
A|-----5--5-4-------5--5-4-7-----5--5-4-------5--5-4-7-----------------------|
E|-0-3--------5-0-3----------0-3--------5-0-3--------------------------------|

e|---------------------------------------------------------------------------|
B|---------------------------------------------------------------------------|
G|---------------------------------------------------------------------------|
D|---5-4---------------------------------------------------------------------|
A|-7-----5-7-----------------------------------------------------------------|
E|-----------5-7-0-0-3-5-0-3-0-2---------------------------------------------|

 

  x2

e|---------------------------------------------------------------------------|
B|---------------------------------------------------------------------------|
G|---------------------------------------------------------------------------|
D|---------------------------------------------------------------------------|
A|-----5--5-5-5p4-------5--5-5-5p4-7-----5--5-5-5p4-------5--5-5-5p4-7-------|
E|-0-3------------5-0-3--------------0-3------------5-0-3--------------------|

e|---------------------------------------------------------------------------|
B|---------------------------------------------------------------------------|
G|---------------------------------------------------------------------------|
D|---5-4---------------------------------------------------------------------|
A|-7-----5-7-----------------------------------------------------------------|
E|-----------5-7-0-0-3-5-0-3-0-2---------------------------------------------|


 
  Solo        
                    x x x
e|------------------------14br~-15br-14----14----15~-------------------------|
B|-17--15~-14br~-------12--------------17----17------------------------------|
G|-16----------------12------------------------------------------------------|
D|-14--------------14--------------------------------------------------------|
A|---------------------------------------------------------------------------|
E|---------------------------------------------------------------------------|

e|---------------------------------------------------------------------------|
B|--15-14--------------------------------------------------------------------|
G|--14-14-12-14-12-14b~--14br-12-14-12----14-12\-----------------------------|
D|-------------------------------------14------------------------------------|
A|---------------------------------------------------------------------------|
E|---------------------------------------------------------------------------|



  x2

e|---------------------------------------------------------------------------|
B|---------------------------------------------------------------------------|
G|---------------------------------------------------------------------------|
D|---8-----8----8-----8--11-11--------8-----8----8-----8--11-11-11-11--------|
A|---7-----7----7-----7--10-10--------7-----7----7-----7--10-10-10-10--------|
E|-0-6-0-0-6--0-6-0-0-6---9--9------0-6-0-0-6--0-6-0-0-6---9--9--9--9--------|



              
e|---------------------------------------------------------------------------|
B|---------------------------------------------------------------------------|
G|---------------------------------------------------------------------------|
D|---------------------------------------------------------------------------|
A|-----5--5-5-5p4-------5--5-5-5p4-7-----5--5-5-5p4-------5--5-5-5p4-7-------|
E|-0-3------------5-0-3--------------0-3------------5-0-3--------------------|


e|---------------------------------------------------------------------------|
B|---------------------------------------------------------------------------|
G|---------------------------------------------------------------------------|
D|---5-4---------------------------------------------------------------------|
A|-7-----5-7-----------------------------------------------------------------|
E|-----------5-7-0-0-3-5-0-3-0-2---------------------------------------------|



e|---------------------------------------------------------------------------|
B|---------------------------------------------------------------------------|
G|---------------------------------------------------------------------------|
D|---------------------------------------------------------------------------|
A|-----5--5-5-5p4-------5--5-5-5p4-7-7-7-7-7-7-7--5p4-------5--5-5-5p4-7-----|
E|-0-3------------5-0-3-------------------------------5-0-3------------------|



e|---------------------------------------------------------------------------|
B|---------------------------------------------------------------------------|
G|---------------------------------------------------------------------------|
D|---5-4---------------------------------------------------------------------|
A|-7-----5-7-----------------------------------------------------------------|
E|-----------5-7-0-0-3-5-0-3-0-2---------------------------------------------|



e|---------------------------------------------------------------------------|
B|---------------------------------------------------------------------------|
G|---------------------------------------------------------------------------|
D|---------------------------------------------------------------------------|
A|-----5--5-4-------5--5-4-7-----5--5-4-------5--5-4-7-----------------------|
E|-0-3--------5-0-3----------0-3--------5-0-3--------------------------------|



e|---------------------------------------------------------------------------|
B|---------------------------------------------------------------------------|
G|---------------------------------------------------------------------------|
D|---5-4---------------------------------------------------------------------|
A|-7-----5-7-----------------------------------------------------------------|
E|-----------5-7-0-0-3-5-0-3-0-2---------------------------------------------|



e|---------------------------------------------------------------------------|
B|---------------------------------------------------------------------------|
G|---------------------------------------------------------------------------|
D|---------------------------------------------------------------------------|
A|-----5--5-4-------5--5-4-7-----5--5-4-------5--5-4-7-----------------------|
E|-0-3--------5-0-3----------0-3--------5-0-3--------------------------------|



e|---------------------------------------------------------------------------|
B|---------------------------------------------------------------------------|
G|---------------------------------------------------------------------------|
D|---5-4---------------------------------------------------------------------|
A|-7-----5-7-----------------------------------------------------------------|
E|-----------5-7-0-----------------------------------------------------------|




  x4

e|---------------------------------------------------------------------------|
B|---------------------------------------------------------------------------|
G|---------------------------------------------------------------------------|
D|---8-----8----8-----8--11-11--------8-----8----8-----8--11-11-11-11--------|
A|---7-----7----7-----7--10-10--------7-----7----7-----7--10-10-10-10--------|
E|-0-6-0-0-6--0-6-0-0-6---9--9------0-6-0-0-6--0-6-0-0-6---9--9--9--9--------|


  Last pass
e|---------------------------------------------------------------------------|
B|---------------------------------------------------------------------------|
G|---------------------------------------------------------------------------|
D|-11-11-11-11---------------------------------------------------------------|
A|-10-10-10-10--------5--5-5-5p4---2-----------------------------------------|
E|--9--9--9--9----0-3------------5-0-----------------------------------------|




  Verse 1

e|---------------------------------12--12--12--12\10---14--------------------|
B|---------------------------------------------------------------------------|
G|--------------7/9/11-------------------------------------------------------|
D|-9--9--9-9-9---------------------------------------------------------------|
A|---------------------------------------------------------------------------|
E|---------------------------------------------------------------------------|

e|--15-15-15-15-14-14-14-14--------------------------------12----------------|
B|---------------------------15----15-15-12---12-10-12---12--12-10-----------|
G|---------------------------------------------------------------------------|
D|---------------------------------------------------------------------------|
A|---------------------------------------------------------------------------|
E|---------------------------------------------------------------------------|

e|---------------------------------------------------------------------------|
B|-10-10-12------------------------------------------------------------------|
G|----------9-----------11brb~-----------------------------------------------|
D|---------------------------------------------------------------------------|
A|---------------------------------------------------------------------------|
E|---------------------------------------------------------------------------|


  Chorus

e|--15-15-15-15-15-14-14-14-14\10-10-10/12-----------12----------------------|
B|-------------------------------------------12----12--12-10---10-12----12\5-|
G|---------------------------------------------------------------------------|
D|---------------------------------------------------------------------------|
A|---------------------------------------------------------------------------|
E|---------------------------------------------------------------------------|

e|---------------------------------------------------------------------------|
B|--5/7-7-7-7-7-7-7-7/8-8-8-8-8/10-10-10-10----------------------------------|
G|---------------------------------------------------------------------------|
D|---------------------------------------------------------------------------|
A|---------------------------------------------------------------------------|
E|---------------------------------------------------------------------------|



  Chorus x2
  
e|---------------------------------------------------------------------------|
B|---------------------------------------------------------------------------|
G|-5-5-5-5-5-5--5-5-5-5-5-5--9-9-9-9-9-9--7-7-7-7-7-7------------------------|
D|-5-5-5-5-5-5--2-2-2-2-2-2--9-9-9-9-9-9--7-7-7-7-7-7------------------------|
A|-3-3-3-3-3-3--0-0-0-0-0-0--7-7-7-7-7-7--5-5-5-5-5-5------------------------|
E|---------------------------------------------------------------------------|



e|---------------------------------------------------------------------------|
B|---------------------------------------------------------------------------|
G|-5-5-5-5-5-5--5-5-5-5-5-5--------------------------------------------------|
D|-5-5-5-5-5-5--2-2-2-2-2-2--------------------------------------------------|
A|-3-3-3-3-3-3--0-0-0-0-0-0--------------------------------------------------|
E|---------------------------------------------------------------------------|




e|---------------------------------------------------------------------------|
B|---------------------------------------------------------------------------|
G|---------------------------------------------------------------------------|
D|-------------------------------------------------------5-7-----------------|
A|-2--2---2--2------------5-7--2--2---2--2-----------5-7---------------------|
E|-0--0-x-0--0--x-0-3-5-7------0--0-x-0--0-x-0-3-5-7-------------------------|




  Guitar 1

e|---------------------------------------------------------------------------|
B|---------------------------------------------------------------------------|
G|--12-11-11\14---11br11/----------12-11-11\14--11br11/----------------------|
D|---------------------------------------------------------------------------|
A|---------------------------------------------------------------------------|
E|---------------------------------------------------------------------------|

e|---------------------------------------------------------------------------|
B|---------------------------------------------------------------------------|
G|--16-14-19----16\14-14----------16-14-19----16\14-14-----------------------|
D|---------------------------------------------------------------------------|
A|---------------------------------------------------------------------------|
E|---------------------------------------------------------------------------|

e|---------------------------------------------------------------------------|
B|---------------------------------------------------------------------------|
G|--12-11-11\14---11br11/----------12-11-11\14--11br11/----------------------|
D|---------------------------------------------------------------------------|
A|---------------------------------------------------------------------------|
E|---------------------------------------------------------------------------|

e|---------------------------------------------------------------------------|
B|---------------------------------------------------------------------------|
G|--16-14-19----16\14-14-\---------16-14-19----16\14-14-\--------------------|
D|---------------------------------------------------------------------------|
A|---------------------------------------------------------------------------|
E|---------------------------------------------------------------------------|


  
  Guitar 2 - Acoustic

e|----------------------3--3-3-3---------------------------------------------|
B|--5--5-5-5--3--3-3-3-----------5\3--3-3-3-3-3-3-3-3-3----------------------|
G|---------------------------------------------------------------------------|
D|---------------------------------------------------------------------------|
A|---------------------------------------------------------------------------|
E|---------------------------------------------------------------------------|



  Guitar 1 - Acoustic

e|---------------------------------------------------------------------------|
B|---------------------------------------------------------------------------|
G|---------------------------------------------------------------------------|
D|----9-7-9----7-5-7----5-4-5---4-5-7-5-4-5-4----------------4---------------|
A|5/7--------7--------7-----------------------5-7------7-5-7---5-7br------5-7|
E|------------------------------------------------7--7---------------7--7----|

  x2
e|---------------------------------------------------------------------------|
B|---------------------------------------------------------------------------|
G|---------------------------------------------------------------------------|
D|----9-7-9----7-5-7----5-4-5---4-5-7-5-4-5-4----------------4---------------|
A|--7--------7--------7-----------------------5-7------7-5-7---5-7br------5-7|
E|------------------------------------------------7--7---------------7--7----|

  Last pass

e|---------------------------------------------------------------------------|
B|---------------------------------------------------------------------------|
G|---------------------------------------------------------------------------|
D|----9-7-9----7-5-7----5-4-5---4-5-7-5-4-5-4----------------4---------------|
A|-7---------7--------7-----------------------5-7------7-5-7-----------------|
E|------------------------------------------------7--7-----------------------|



  Guitar 2 - Acoustic

e|----------------------3--3-3-3---------------------------------------------|
B|--5--5-5-5--3--3-3-3-----------5\3--3-3-3-3-3-3-3-3-3----------------------|
G|---------------------------------------------------------------------------|
D|---------------------------------------------------------------------------|
A|---------------------------------------------------------------------------|
E|---------------------------------------------------------------------------|

  Guitar 3?

e|---------------------------------------------------------------------------|
B|--20-19-22-20\19-19\-------------------------------------------------------|
G|---------------------------------------------------------------------------|
D|---------------------------------------------------------------------------|
A|---------------------------------------------------------------------------|
E|---------------------------------------------------------------------------|




  Guitar 1 x3

e|---------------------------------------------------------------------------|
B|---------------------------------------------------------------------------|
G|---------------------------------------------------------------------------| 
D|-------------------------------------------------------------5-7-----------|
A|-2--2---2--2---2--2-----------5-7--2--2---2--2-----------5-7---------------|
E|-0--0-x-0--0-x-0--0-x-0-3-5-7------0--0-x-0--0-x-0-3-5-7-------------------|


  Guitar 2 - Acoustic - Last pass

e|---------------------------------------------------------------------------|
B|---------------------------------------------------------------------------|
G|---------------------------------------------------------------------------|
D|----9-7-9----7-5-7----5-4-5---4-5-7-5-4-5-4----------------4---------------|
A|5/7--------7--------7-----------------------5-7------7-5-7---5-7br------5-7|
E|------------------------------------------------7--7---------------7--7----|




  Outro - Acoustic x4

e|---------------0--------------------------0--------------------------------|
B|---------0-------0------------------0-------0------------------------------|
G|-----5-----5-------5---5--------9-----9-------9---9------------------------|
D|---2---2-----2-------2---2----9---9-----9-------9---9----------------------|
A|-0--------------------------7----------------------------------------------|
E|---------------------------------------------------------------------------|
                                                                               
e|---------------0-------------------------0---------------------------------|
B|---------0-------0-----------------0-------0-------------------------------|
G|-----7-----7-------7---7-------5-----5-------5---5-------------------------|
D|---7---7-----7-------7---7---5---5-----5-------5---5-----------------------|
A|-5-------------------------3-----------------------------------------------|
E|---------------------------------------------------------------------------|

  End with

e|---------------0-----------------------------------------------------------|
B|---------0-------0---------------------------------------------------------|
G|-----5-----5-------5---5---------------------------------------------------|
D|---2---2-----2-------2---2-------------------------------------------------|
A|-0-------------------------------------------------------------------------|
E|---------------------------0-----------------------------------------------|





************************************

| /   slide up
| \   slide down
| h   hammer-on
| p   pull-off
| ~   vibrato
| +   harmonic
| x   Mute note
| b   Bend
| pb  Pre-bend
| br  Bend release
| pbr Pre-bend release
| brb Bend release bend

************************************
Добавлено: 30.03.2016
Другие материалы по этой песне:
  • Аккорды и текст

Страница создана 30.03.2016
http://primanota.ru/riverside/saturate-me-chords.htm
Привет, Гость.
Предлагаем пройти революционный курс по гитаре.
Подарок от PrimaNota.Ru, забирай!