PrimaNota.ru - самый крупный в мире бесплатный архив песенных текстов, аккордов, табулатур и нот


Riverside - The Curtain Falls - текст песни, таба, видео

Регистрация Запомнить меня
Войти через:  Facebook Google Twitter Vk Yandex Mail.ru

Riverside - The Curtain Falls - текст песни, таба, видео

Печатать
Просмотров: 44
Уроки эстрадного вокала в Санкт-Петербурге
Авторы музыки: Riverside
Авторы текста: Mariusz Duda
[Intro]

e|----------------------------10-11-10--------------------------------------|
B|--------11-13------------11----------13-11-11/13---13b15-11-13------------|
G|-12-----------12------12---------------------------------------12---------|
D|--------------------------------------------------------------------------|
A|--------------------------------------------------------------------------|
E|--------------------------------------------------------------------------|

e|----------------------10-11-10--------------------------------------------|
B|-------11/15\------11----------13-11-11/13-13--13b15br13-11-13------------|
G|-10-12----------12---------------------------------------------12---------|
D|--------------------------------------------------------------------------|
A|--------------------------------------------------------------------------|
E|--------------------------------------------------------------------------|

e|--------------------------------------------------------------------------|
B|-13-11----13-11----13-11----13-11----13-11--------------------------------|
G|-------12-------12-------12-------12-------12-10-12-----------------------|
D|--------------------------------------------------------------------------|
A|--------------------------------------------------------------------------|
E|--------------------------------------------------------------------------|
                                                                             X2
e|-----------------------------------------10--13--10-----------------------|
B|-----------------------------------------------------11-------------------|
G|-12-10----12-10----12-10----12-10-----12----------------------------------|
D|-------12-------12-------12-------12--------------------------------------|
A|--------------------------------------------------------------------------|
E|--------------------------------------------------------------------------|


[Verse]

e|-----------------------------------------------------------------------|
B|-----------------------------------------------------------------------|
G|------------------------------------------10b12br10-8-10-8-------------|
D|-----------------------10-8-10-8/10-------------------------10---------|
A|------8/10\8/10--------------------------------------------------------|
E|-8-10------------------------------------------------------------------|

e|-----------------------------------------------------------------------|
B|------8-9-8------------------------------------------------------------|
G|----8-------8/10------pb12-12pb12pb12pbr-10----8h10p8-7h8p7------------|
D|-10----------------------------------------------------------8/10------|
A|-----------------------------------------------------------------------|
E|-----------------------------------------------------------------------|

e|-----------------------------------|
B|------8-9-8------------------------|
G|----8-------8/10-------8/10-10\8---|
D|-10--------------------------------|
A|-----------------------------------|
E|-----------------------------------|


[Solo]

e|------------------10-11-10----10-------------------------------------------|
B|-13b15--13-----13----------13----11/13---13-13\11-11-11\8-8---6------------|
G|---------------------------------------------------------------------------|
D|---------------------------------------------------------------------------|
A|---------------------------------------------------------------------------|
E|---------------------------------------------------------------------------|

e|-----10-11-10----10--------13b15--pb15br13-11-----11-10-11-10----10-11/13-11-10---|
B|---x----------13----13----------------------------------------13------------------|
G|-x--------------------------------------------------------------------------------|
D|----------------------------------------------------------------------------------|
A|----------------------------------------------------------------------------------|
E|----------------------------------------------------------------------------------|

e|-----------------------------------|
B|-8-8-9-8----8----------------------|
G|---------10------10-8--------------|
D|-----------------------8/10--------|
A|-----------------------------------|
E|-----------------------------------|


[Verse]

e|---------------------------------------------------------------------------------|
B|---------------------------------------------------------------------------------|
G|---------------------------------------10b12--pbr12br10--------------------------|
D|-----------------------10-8-8/10------------------------10-----------------------|
A|-------8/10\8/10-----------------------------------------------------------------|
E|-8-10----------------------------------------------------------------------------|

[Break]

e|----------------------------|
B|----------------------------|
G|----------------------------|
D|----------------------------|X16
A|-1h3-3-3-3-3-3-3-3-3-3-3-3--|
E|----------------------------|

e|---------------------------------------------------------------------------|
B|--------13-11--------------------------13-11-------------------------------|
G|-----12-------12--------------------12-------12----------------------------|
D|-/10----------------------------/10----------------------------------------|
A|---------------------------------------------------------------------------|
E|---------------------------------------------------------------------------|

e|--------------------------10-11-13---11h13p11--10---------------------------|
B|-13b15-pb15br13---------x---------------------------13-11-------------------|
G|----------------12----x-----------------------------------12----------------|
D|----------------------------------------------------------------------------|
A|----------------------------------------------------------------------------|
E|----------------------------------------------------------------------------|

e|---------------------------------------------------------------------------|
B|--------13-11--------------------------13-11-------------------------------|
G|-----12-------12--------------------12-------12----------------------------|
D|-/10----------------------------/10----------------------------------------|
A|---------------------------------------------------------------------------|
E|---------------------------------------------------------------------------|

e|-13-----------------13-------------------------------------------------------|
B|----11----13-11--------11b13br11----13-11------------------------------------|
G|-------10-------10---------------10-------10---------------------------------|X3
D|-----------------------------------------------------------------------------|
A|-----------------------------------------------------------------------------|
E|-----------------------------------------------------------------------------|

e|-15-------15--------15--------------15--------16-15----16-15-----16-15----16-15----|
B|----13-------13--------13b14br13-------13-----------13-------13--------13-------13-|
G|-------15-------15---------------15-------15---------------------------------------|
D|-----------------------------------------------------------------------------------|
A|-----------------------------------------------------------------------------------|
E|-----------------------------------------------------------------------------------|

e|-15-------15--------15-------15--------16-15----16-15----16-15----16-15-----/18-18-18-18-18-18|
B|----16-------16--------16-------16-----------13-------13-------13------13---------------------|
G|-------17-------17--------17-------17---------------------------------------------------------|
D|----------------------------------------------------------------------------------------------|
A|----------------------------------------------------------------------------------------------|
E|----------------------------------------------------------------------------------------------|

e|---------------------------------------------------------------------------------|
B|---------------------------------------------------------------------------------|
G|---------------------------------------------------------------------------------|
D|-5-5-x-5--------5-5-x-5-------x-x--x-x-----5-5-x-5-------5-5-x-5-----------------|
A|-3-3-x-3--------3-3-x-3-------x-x--x-x-----5-3-x-3-------3-3-x-3-----------------|
E|-3-3-x-3--------3-3-x-3-------x-x--x-x-----3-3-x-3-------3-3-x-3-----------------|

e|---------------------------------------------------------------|
B|---------------------------------------------------------------|
G|---------------------------------5-----------------------------|
D|---4---4--------4---4----------4---4---4----4---4--------------|
A|/3---3---3----3---3---3------3-------3----3---3---3------------|
E|-----------2------------2---------------------------2----------|

e|---------------------------------------------------------------|
B|---------------------------------------------------------------|
G|---------5----------------------5---5--------------------------|
D|---4---4---4-----4---4--------4---4---4--5-6-5-----------------|
A|-3---3---------3---3---3----3------------3-4-3-----------------|
E|-------------------------2-------------------------------------|
PM . . . . . .   . . . . . .  . . . . . .  . . . 


[Outro]
e|----------------------------|
B|----------------------------|
G|----------------------------|
D|----------------------------|
A|-1h3-3-3-3-3-3-3-3-3-3-3-3--|
E|----------------------------|

e|------------------------------------------------------------------13b15--------|
B|-11\-----------------------------13\----pb15br13-----pb11br8-------------------|
G|------------12\---------12\----------------------------------------------------|
D|-------------------------------------------------------------------------------|
A|-------------------------------------------------------------------------------|
E|-------------------------------------------------------------------------------|

e|-13-11-10-----------------------------------------------13-11-10-------------------|
B|----------13-13b15-13---------------------------------------------13-11------------|
G|-----------------------10h12-12--12-12--------10/12\10-------------------12-10-----|
D|----------------------------------------10-12----------------------------------12--|
A|-----------------------------------------------------------------------------------|
E|-----------------------------------------------------------------------------------|

e|-------------------------------------------------------15\--------15-13--------|
B|-------11-------------13b15-13----13b15br13------15\---16\---18---------16\----|
G|-10h12----10h12----------------------------------------------------------------|
D|-------------------------------------------------------------------------------|
A|-------------------------------------------------------------------------------|
E|-------------------------------------------------------------------------------|

e|----------------------------|
B|----------------------------|
G|--15------------------------|
D|----------15\---------------|
A|----------------------------|
E|----------------------------|

************************************
| h   Hammer-on
| p   Pull-off
| b   Bend
| br  Bend release
| pb  Pre-bend
| pbr Pre-bend release
| /   Slide up
| \   Slide down
| PM  Palm mute
| TR  Trill
************************************
Добавлено: 12.05.2017
Другие материалы по этой песне:
  • Аккорды и текст

Страница создана 24.02.2014
http://primanota.ru/riverside/the-curtain-falls-chords.htm
Привет, Гость.
Предлагаем пройти революционный курс по гитаре.
Подарок от PrimaNota.Ru, забирай!