PrimaNota.ru - самый крупный в мире бесплатный архив песенных текстов, аккордов, табулатур и нот


Riverside - Cybernetic Pillow - текст песни, таба, видео

Регистрация Запомнить меня
Войти через:  Facebook Google Twitter Vk Yandex Mail.ru

Riverside - Cybernetic Pillow - текст песни, таба, видео

Печатать
Просмотров: 49
Авторы музыки: Riverside
Авторы текста: Mariusz Duda
---------------------------------------------------------------------------------------------------------------
                                          Artist - Riverside 
                                         ********************
                                      Song - Cybernetic Pillow
                                     **************************
                                  Album - Rapid Eye Movement (2007)   
                                 ***********************************
                                         Tabbed By - Ayreon77
                                        **********************
---------------------------------------------------------------------------------------------------------------
Tuning = Standard


Most of The Song Is Right Hand Muted


INTRO
******
e|-------------|---------|-------|---------|---------|-------|
B|-------------|---------|-------|---------|---------|-------|
G|-------------|---------|-------|---------|---------|-------|
D|-------------|---------|-------|---------|---------|-------|
A|---------5-5-|-----5-5-|---8-8-|-----5-5-|-----5-5-|---8-8-|
E|-0--0-0------|-0-0-----|-0-----|-0-0-----|-0-0-----|-0-----|


e|------------|---------|-------|
B|------------|---------|-------|
G|------------|---------|-------|
D|------------|---------|-------|
A|--------5-5-|-----5-5-|---8-8-|
E|-0--0-0-----|-0-0-----|-0-----|X2


-----------------------
VERSE 1
********
    Last time I made you up      You looked so bright        
e|------------|---------|-------|---------|---------|-------|
B|------------|---------|-------|---------|---------|-------|
G|------------|---------|-------|---------|---------|-------|
D|------------|---------|-------|---------|---------|-------|
A|--------5-5-|-----5-5-|---8-8-|-----5-5-|-----5-5-|---8-8-|
E|-0--0-0-----|-0-0-----|-0-----|-0-0-----|-0-0-----|-0-----|

  I was about to   believe     in   angels
e|---------|---------|-------|------------|---------|-------|
B|---------|---------|-------|------------|---------|-------|
G|---------|---------|-------|------------|---------|-------|
D|---------|---------|-------|------------|---------|-------|
A|-----5-5-|-----5-5-|---8-8-|--------5-5-|-----5-5-|---8-8-|
E|-0-0-----|-0-0-----|-0-----|-0--0-0-----|-0-0-----|-0-----|


-----------------------
VERSE 2
********
   Searching my lucid dream      Came up against
e|------------|---------|-------|---------|---------|-------|
B|------------|---------|-------|---------|---------|-------|
G|------------|---------|-------|---------|---------|-------|
D|------------|---------|-------|---------|---------|-------|
A|--------5-5-|-----5-5-|---8-8-|-----5-5-|-----5-5-|---8-8-|
E|-0--0-0-----|-0-0-----|-0-----|-0-0-----|-0-0-----|-0-----|

  Pictures of your imagination                Feel the pain
e|------------|---------|-------|------------|---------|-------|
B|------------|---------|-------|------------|---------|-------|
G|------------|---------|-------|------------|---------|-------|
D|------------|---------|-------|------------|---------|-------|
A|--------5-5-|-----5-5-|---8-8-|--------5-5-|-----5-5-|---8-8-|
E|-0--0-0-----|-0-0-----|-0-----|-0--0-0-----|-0-0-----|-0-----|


   D        Feel the pain
e|------|--------------|------|------|
B|-7--7-|-7--7---------|-7--7-|-7--7-|
G|-7--7-|-7--7---------|-7--7-|-7--7-|
D|-7--7-|-7--7---------|-7--7-|-7--7-|
A|-5--5-|-5--5---------|-5--5-|-5--5-|
E|------|--------------|------|------|


-----------------------
00:45
SMALL SOLO
************                                        
e|----------------------|----------|----------------------|------s---|\
B|-------12-15-13-12----|-12-------|-------12-15-13-12----|-12-15\17-| \
G|-13-14-------------13-|----14-13-|-13-14-------------13-|----------|  \
D|----------------------|----------|----------------------|----------|   \
A|----------------------|----------|----------------------|----------|    \
E|----------------------|----------|----------------------|----------|     \
                                                                            X
                                                                            2
e|----------------------|----------|---------------------------------|     /
B|-------12-15-13-12----|-12-------|-------12----13--13-13-13-12-----|    /
G|-13-14-------------13-|----14-13-|-14-13----14-----------------14--|   /
D|----------------------|----------|---------------------------------|  /
A|----------------------|----------|---------------------------------| / 
E|----------------------|----------|---------------------------------|/


                                  e|-----------------s-|
                                  B|-------12----13--\-|
                                  G|-14-13----14-------|
                                  D|-2nd time finish---|
                                  A|-----with this-----|
                                  E|-------------------|


-----------------------
VERSE 3
********
  Im looking for you now
e|------------------------|----------------------|
B|------------------------|-------------------s--|
G|-----4-7-5-4----4-------|-----4-7-5-4----4-7\9-|
D|-6-7---------5----7-6~~-|-6-7---------5--------|
A|------------------------|----------------------|
E|------------------------|----------------------|

  Somewhere far-off in my mind
e|------------------------|-----------|-----------|
B|------------------------|-----------|-----------|
G|-----4-7-5-4----4-------|-----4---5-|-5-5-5-4---|
D|-6-7---------5----7-6~~-|-7-6---7---|---------7-|
A|------------------------|-----------|-----------|
E|------------------------|-----------|-----------|

  I wish you told me everything
e|------------------------|----------------------|
B|------------------------|-------------------s--|
G|-----4-7-5-4----4-------|-----4-7-5-4----4-7\9-|
D|-6-7---------5----7-6~~-|-6-7---------5--------|
A|------------------------|----------------------|
E|------------------------|----------------------|

  Theres no way I can get around that
e|------------------------|-----------|
B|------------------------|-----------|
G|-----4-7-5-4----4-------|-----4---5-|
D|-6-7---------5----7-6~~-|-7-6---7---|
A|------------------------|-----------|
E|------------------------|-----------|


-----------------------
BRIDGE
*******
01:25
SMALL SOLO
*********** 
  But if this is only a dream           Does it follow   One day must we wake up 
     h        h             h        h             h        h             h        h
e|-17-19-17-17-19--17~~-|-17-19-17-17-19--17~~-|-17-19-17-17-19--17~~-|-17-19-17-17-19-20~~~-|
B|----------------------|----------------------|----------------------|----------------------|
G|----------------------|----------------------|----------------------|----------------------|
D|----------------------|----------------------|----------------------|----------------------|
A|----------------------|----------------------|----------------------|----------------------|
E|----------------------|----------------------|----------------------|----------------------|

  But if this is only a dream I can just..............
     h      h             h      s
e|-17-19--17-19--17~~-|-17-19--17\-| ||-------------|-------|
B|--------------------|------------| ||-???????????????????-|
G|--------------------|------------| ||----7------7-|-----9-|
D|--------------------|------------| ||----7--5-5-7-|-7-7-9-|
A|--------------------|------------| ||-2--5--5-5-5-|-7-7-7-|
E|--------------------|------------| ||-0--5--5-5-5-|-7-7-7-|X4



-----------------------
01:49
BACK TO INTRO
**************                                        Ha  Ha
e|-------------|---------|-------|---------|---------|-------|
B|-------------|---------|-------|---------|---------|-------|
G|-------------|---------|-------|---------|---------|-------|
D|-------------|---------|-------|---------|---------|-------|
A|---------5-5-|-----5-5-|---8-8-|-----5-5-|-----5-5-|---8-8-|
E|-0--0-0------|-0-0-----|-0-----|-0-0-----|-0-0-----|-0-----|

                                             I feel no pain
e|---------|---------|-------|------------|---------|-------|
B|---------|---------|-------|------------|---------|-------|
G|---------|---------|-------|------------|---------|-------|
D|---------|---------|-------|------------|---------|-------|
A|-----5-5-|-----5-5-|---8-8-|--------5-5-|-----5-5-|---8-8-|
E|-0-0-----|-0-0-----|-0-----|-0--0-0-----|-0-0-----|-0-----|

                                             I feel no pain
e|------------|---------|-------|---------|---------|-------|
B|------------|---------|-------|---------|---------|-------|
G|------------|---------|-------|---------|---------|-------|
D|------------|---------|-------|---------|---------|-------|
A|--------5-5-|-----5-5-|---8-8-|-----5-5-|-----5-5-|---8-8-|
E|-0--0-0-----|-0-0-----|-0-----|-0-0-----|-0-0-----|-0-----|


e|---------|---------|-------|------------|---------|-------|
B|---------|---------|-------|------------|---------|-------|
G|---------|---------|-------|------------|---------|-------|
D|---------|---------|-------|------------|---------|-------|
A|-----5-5-|-----5-5-|---8-8-|--------5-5-|-----5-5-|---8-8-|
E|-0-0-----|-0-0-----|-0-----|-0--0-0-----|-0-0-----|-0-----|

  SYNTH
e|---------|---------|-------|------------|---------|-------|
B|---------|---------|-------|------------|---------|-------|
G|---------|---------|-------|------------|---------|-------|
D|---------|---------|-------|------------|---------|-------|
A|-----5-5-|-----5-5-|---8-8-|--------5-5-|-----5-5-|---8-8-|
E|-0-0-----|-0-0-----|-0-----|-0--0-0-----|-0-0-----|-0-----|


e|---------|---------|-------|-----------------|-------|
B|---------|---------|-------|-----------------|-------|
G|---------|---------|-------|-------7-7-5-5-7-|-------|
D|---------|---------|-------|-------7-7-5-5-7-|-7-7-9-|
A|-----5-5-|-----5-5-|---8-8-|-2-2-2-5-5-5-5-5-|-7-7-9-|
E|-0-0-----|-0-0-----|-0-----|-0-0-0-----------|-7-7-7-|


-----------------------
02:20
SMALL SOLO
*********** 
     h        h             h        h             h        h             h        h
e|-17-19-17-17-19--17~~-|-17-19-17-17-19--17~~-|-17-19-17-17-19--17~~-|-17-19-17-17-19--17~~-|
B|----------------------|----------------------|----------------------|----------------------|
G|----------------------|----------------------|----------------------|----------------------|
D|----------------------|----------------------|----------------------|----------------------|
A|----------------------|----------------------|----------------------|----------------------|
E|----------------------|----------------------|----------------------|----------------------|
BRIDGE
*******
  But if this is only a dream           Does it follow   One day must we wake up
     h        h             h        h             h        h             h        h
e|-17-19-17-17-19--17~~-|-17-19-17-17-19--17~~-|-17-19-17-17-19--17~~-|-17-19-17-17-19-20~~~-|
B|----------------------|----------------------|----------------------|----------------------|
G|----------------------|----------------------|----------------------|----------------------|
D|----------------------|----------------------|----------------------|----------------------|
A|----------------------|----------------------|----------------------|----------------------|
E|----------------------|----------------------|----------------------|----------------------|
  But if this is only a dream I can just.......
     h        h             h     s
e|-17-19-17-17-19--17~~-|-17-19-17\-------------| ||-------------|-------|
B|----------------------|-----------------------| ||-???????????????????-|
G|----------------------|-----------------------| ||----7------7-|-----9-|
D|----------------------|---------scratch Pleck-| ||----7--5-5-7-|-7-7-9-|
A|----------------------|---------X-------------| ||-2--5--5-5-5-|-7-7-7-|
E|-------------------------------X--------------| ||-0--5--5-5-5-|-7-7-7-|X4


-----------------------
02:54
SMALL SOLO
************                                        
e|----------------------|----------|----------------------|------s---|\
B|-------12-15-13-12----|-12-------|-------12-15-13-12----|-12-15\17-| \
G|-13-14-------------13-|----14-13-|-13-14-------------13-|----------|  \
D|----------------------|----------|----------------------|----------|   \
A|----------------------|----------|----------------------|----------|    \
E|----------------------|----------|----------------------|----------|     \
                                                                            X
                                                                            2
e|----------------------|----------|---------------------------------|     /
B|-------12-15-13-12----|-12-------|-------12----13--13-13-13-12-----|    /
G|-13-14-------------13-|----14-13-|-14-13----14-----------------14--|   /
D|----------------------|----------|---------------------------------|  /
A|----------------------|----------|---------------------------------| / 
E|----------------------|----------|---------------------------------|/


                                  e|-----------------s-|
                                  B|-------12----13--\-|
                                  G|-14-13----14-------|
                                  D|-2nd time finish---|
                                  A|-----with this-----|
                                  E|-------------------|

-----------------------
03:14
SOLO
*****
e|------------------------------|---------------------|-----------------------------|----------------------|
B|---s--------------------------|--h--p---------------|---s-------------------------|--h--p----------------|
G|-14\16--16-16-16-14-14--10-9--|-9-10-9----9-10-12-9-|-12\14--14-14-14-12-12--9-10-|-9-10-9----9-10-12-14-|
D|------------------------------|--------12-----------|-----------------------------|--------12------------|
A|------------------------------|---------------------|-----------------------------|----------------------|
E|------------------------------|---------------------|-----------------------------|----------------------|X2


03:33
e|---s-------------------s-|---------------------------12--------|---h--p------------------|
B|-12\17--12-12-12--12-12\-|-12-12-12-13-15-12--15-15-----13~~~~-|-12-13-12----12----------|
G|-------------------------|-------------------------------------|----------14----14-12----|
D|-------------------------|-------------------------------------|----------------------14-|
A|-------------------------|-------------------------------------|-------------------------|
E|-------------------------|-------------------------------------|-------------------------|


e|---s--------------s-|---------------------------12--------|---p---------------------|
B|-12\17-15-12-12-12\-|-12-12-12-13-15-12--15-15-----13~~~~-|-13-12--12-------p-------|
G|--------------------|-------------------------------------|-----------14--14-12~~~~-|
D|--------------------|-------------------------------------|-------------------------|
A|--------------------|-------------------------------------|-------------------------|
E|--------------------|-------------------------------------|-------------------------|

03:53
e|------------------------------|---------------------|-----------------------------|----------------------|
B|---s--------------------------|--h--p---------------|---s-------------------------|--h--p----------------|
G|-14\16--16-16-16-14-14--10-9--|-9-10-9----9-10-12-9-|-12\14--14-14-14-12-12--9-10-|-9-10-9----9-10-12-14-|
D|------------------------------|--------12-----------|-----------------------------|--------12------------|
A|------------------------------|---------------------|-----------------------------|----------------------|
E|------------------------------|---------------------|-----------------------------|----------------------|X2

04:13                                                                                 
e|---s--------------|---h--p---------|-----------------------|-12-----------s-|---h--p---------|
B|-15\17--15-12~~~~-|-12-13-12----12-|---s---12--15-15-13-12-|-----15-15-12-\-|-12-13-12----12-|
G|------------------|----------14----|-10\14-----------------|----------------|----------14----|
D|------------------|----------------|-----------------------|----------------|----------------|
A|------------------|----------------|-----------------------|----------------|----------------|
E|------------------|----------------|-----------------------|----------------|----------------|

                    Should have come......
e|------------------13-12----------------|
B|---s---12-13--15-----------------------|
G|-10\14---------------------------------|
D|---------------------------------------|
A|---------------------------------------|
E|---------------------------------------|


-----------------------
04:38
VERSE 4
********
    Last time I made you up      You looked so bright        
e|------------|---------|-------|---------|---------|-------|
B|------------|---------|-------|---------|---------|-------|
G|------------|---------|-------|---------|---------|-------|
D|------------|---------|-------|---------|---------|-------|
A|--------5-5-|-----5-5-|---8-8-|-----5-5-|-----5-5-|---8-8-|
E|-0--0-0-----|-0-0-----|-0-----|-0-0-----|-0-0-----|-0-----|


I was about to   believe     in   angels



ENJOY...........
Добавлено: 24.08.2015
Другие материалы по этой песне:
  • Аккорды и текст

Страница создана 11.12.2013
http://primanota.ru/riverside/cybernetic-pillow-chords.htm
Привет, Гость.
Предлагаем пройти революционный курс по гитаре.
Подарок от PrimaNota.Ru, забирай!