PrimaNota.ru - самый крупный в мире бесплатный архив песенных текстов, аккордов, табулатур и нот


Reckless Love - Bad Lovin - таба, видео

Регистрация Запомнить меня
Войти через:  Facebook Google Twitter Vk Yandex Mail.ru

Reckless Love - Bad Lovin - таба, видео

Печатать
Просмотров: 228
Авторы музыки: Pepe Reckless, Ilkka Wirtanen
Авторы текста: Olli Herman
Intro:
1---------------------------------     ----4==-----------------------------
2---------------------------------     ----4==-----------------------------
3------2-----4-----2-----4---4-2--     -------------------------------4-2--
4--4-4-2-4-4-4-4-4-2-4-4-4---4-2--     -4=====--------\----------\----4-2--
5--4-4-0-4-4-2-4-4-0-4-4-2---2-0--     -4=====--------\----------\----2-0--
6--2-2---2-2---2-2---2-2---------- X4  -2=====--------\----------\---------
   | The F# is Palm Muted |           |Let Ring|    |Slow Pick Slide|

Verse:
1-------------------------------------------------------------------   
2-------------------------------------------------------------------  
3------------------2-2-2-2-2-2-2-2-----------------4-4-4-4-4-4-4-4--    
4--4-4-4-4-4-4-4-4-2-2-2-2-2-2-2-2-2-2-2-2-2-2-2-2-4-4-4-4-4-4-4-4--  
5--4-4-4-4-4-4-4-4-0-0-0-0-0-0-0-0-2-2-2-2-2-2-2-2-2-2-2-2-2-2-2-2--   
6--2-2-2-2-2-2-2-2-----------------0-0-0-0-0-0-0-0------------------ X2 
Palm Muted==========================================================  

Pre Chorus:
1--------------------------------------------------------------------------------------
2--------------------------------------------------------------------------------------
3------------------------------------------------------------------------4-2--4-2--4---
4--4--4--x-4--------------2--2--x-2-------------4--4--x-4------------2---4-2--4-2--4---
5--------------0--0--x-0-------------2--2--x-2------------0--0--x-0--2---2-0--2-0--2---
6--------------------------------------------------------------------0-----------------

Chorus:
1--------------------------------------------------------------------     ---------------------------------0-
2--------------------------------------------------------------------     ---------------------------------0-
3-------------------2---2-2---2-2-2-----------------4---4-4---4-4-4--     ----------------2---2---2-2-2------
4--4---4-4----4-4-4-2---2-2---2-2-2-2---2-2---2-2-2-4---4-4---4-4-4--     -4--4-4---4-4-4-2---2---2-2-2--2==-
5--4---4-4----4-4-4-0---0-0---0-0-0-2---2-2---2-2-2-2---2-2---2-2-2--     -4--4-4---4-4-4-0---0---0-0-0--2==-
6--2---2-2----2-2-2-----------------0---0-0---0-0-0------------------ X3  -2--2-2---2-2-2----------------0==-


Verse

Pre Verse

Chorus

Intro Riff

Solo (Verse)

Bridge

1--------------------------
2-------------------------- 
3---------2-------------4-- 
4--4------2------2------4--
5--4------0------2------2--
6--2-------------0---------

Chorus

Intro Riff

Добавлено: 15.08.2015
Вам также может быть интересно:
Другие материалы по этой песне:
  • Аккорды и текст

Страница создана 15.08.2015
http://primanota.ru/reckless-love/bad-lovin-chords.htm
Привет, Гость.
Предлагаем пройти революционный курс по гитаре.
Подарок от PrimaNota.Ru, забирай!