PrimaNota.ru - самый крупный в мире бесплатный архив песенных текстов, аккордов, табулатур и нот


Reckless Love - Keep It Up All Night - таба, видео

Регистрация Запомнить меня
Войти через:  Facebook Google Twitter Vk Yandex Mail.ru

Reckless Love - Keep It Up All Night - таба, видео

Печатать
Просмотров: 186
Уроки эстрадного вокала в Санкт-Петербурге
Keep It Up All Night - Reckless Love
Tuning Half Step Down - Eb Ab Db Gb Bb eb
Tabbed by Derek Schmidt

Check out my page for video cover - http://www.hammerheadrocks.com/#!dereks-page/c11nt

Tab Key:
h - hammer on
p - pull off
b - bend
r - release
v - vibrato
= - hold note
PH - pinch harmonic
\ - slide down neck
/ - slide up neck
PM - palm mute
W - whammy 
x - muted note
NH - natural harmonic


Verse
e------------------------------------------|
B------------------------------------------|
G----------------4PHv------------------4v--|
D--------------------------------------4v--|
A--0h2--2-2-0h2---------0h2--2-2-0h2-------|
E------------------------------------------| Repeat
       |PM |               |PM |

Chorus                      oh, la, la, la, lah!
e-----------------|        |-----------------------|
B----------3------|        |---------7--10--10b12--|
G--4-------2---2--|        |--/7--9----------------|
D--4---5---0---2--|        |-----------------------|
A--2---5-------0--|        |-----------------------|
E------3----------| Repeat |-----------------------|



Verse


Chorus


Solo
e------7---7----------7---7---------------------------|
B------7---7----------7---7-------------------7-------|
G--9b11-----9b11--9b11-------9b11--9b11r9p7h9---9b11--|
D-----------------------------------------------------|
A-----------------------------------------------------|
E-----------------------------------------------------|


e------7---7----------7---7-----------------------|
B------7---7----------7---7------------------7----|
G--9b11-----9b11--9b11-------9b11--9b11r9-7--7----|
D----------------------------------------------9--|
A-------------------------------------------------|
E-------------------------------------------------|


e--17b19---------------------------|
B----------------------------------|
G------------14h16p14--------------|
D---------------------16p14\12-----|
A------------------------------14--|
E----------------------------------|
     /\
pick a few times during bending


e---22b24--------------------------|
B----------------------------------|
G------------14h16p14--------------|
D---------------------16p14\12-----|
A------------------------------14--|
E----------------------------------|
     /\
same idea here


e---------------------------------------14-14-14-14--17b19--17b19--17b19--|
B---------------15-15-15-15-17-17-17-17-----------------------------------|
G---16-16-16-16-----------------------------------------------------------|
D-------------------------------------------------------------------------|
A-------------------------------------------------------------------------|
E-------------------------------------------------------------------------|
                                                          
                                                   
                                
Breakdown
e-------------------------|
B-------------------------|
G-------------------------|
D-------------------------|
A--2-2-2-2-2-2-2-2-2-2-2--|
E-------------------------| Repeat
|PM=======================|



Chorus till the end
           
Добавлено: 21.06.2016
Другие материалы по этой песне:
  • Аккорды и текст

Страница создана 21.06.2016
http://primanota.ru/reckless-love/keep-it-up-all-night-chords.htm
Привет, Гость.
Предлагаем пройти революционный курс по гитаре.
Подарок от PrimaNota.Ru, забирай!