PrimaNota.ru - самый крупный в мире бесплатный архив песенных текстов, аккордов, табулатур и нот


Reckless Love - Animal Attraction - таба, видео

Регистрация Запомнить меня
Войти через:  Facebook Google Twitter Vk Yandex Mail.ru

Reckless Love - Animal Attraction - таба, видео

Печатать
Просмотров: 492
Уроки эстрадного вокала в Санкт-Петербурге
Hi, this my first tab and i hope that help you play this amazing song (;

the tunning is half-step down (Eb-Ab-Db-Gb-Bb-Eb)

Intro:

Eb|-------------------------------|
Bb|-------------------------------|
Gb|--2----------------------------|
Db|--2----------------------------|
Ab|--0----------------------------|
Eb|------------------------17\----|

Main Riff:

Eb|----------------------------------------------|  -----|
Bb|----------------------------------------------|       |
Gb|----------------------------------------------|       |  x4
Db|-------5----5-----5-7-------------------------|       |
Ab|-----0---00----00------5-3--------------------|       |
Eb|----------------------------------------------|  -----|


Verse:

Eb|-----------------------|  -----|
Bb|-----------------------|       |
Gb|--2------5-------------|       |  x2
Db|--2------5--5----------|       |
Ab|--0------3--5----------|       |
Eb|------------3----------|  -----|

Pre-Chorus:

Eb|-------------------|
Bb|-------------------|
Gb|--7------7-----9---|
Db|--7------7-----9---|
Ab|--5------5-----7---|
Eb|-------------------|

Chorus:

Eb|-----------------------------|  ----|
Bb|-----------------------------|      |
Gb|--------5-5----------2-------|      | x3
Db|--3-3---5-5---5-5----2-5-----|      |
Ab|--3-3---3-3---5-5----0-5-----|      |
Eb|--1-1---------3-3------3-----|  ----|

then:

Eb|----------|
Bb|-------9--|
Gb|-------9--|
Db|--3-3--9--|
Ab|--3-3--7--|
Eb|--1-1-----|


and that pretty much of it, and sorry but i don't have the solo D:
Добавлено: 04.08.2013
Другие материалы по этой песне:
  • Аккорды и текст

Страница создана 04.08.2013
http://primanota.ru/reckless-love/animal-attraction-chords.htm
Привет, Гость.
Предлагаем пройти революционный курс по гитаре.
Подарок от PrimaNota.Ru, забирай!