PrimaNota.ru - самый крупный в мире бесплатный архив песенных текстов, аккордов, табулатур и нот


Reckless Love - Wild Touch - текст песни, таба, видео

Регистрация Запомнить меня
Войти через:  Facebook Google Twitter Vk Yandex Mail.ru

Reckless Love - Wild Touch - текст песни, таба, видео

Печатать
Просмотров: 316
Wild Touch - Reckless Love

Tuning: half step down/ Eb


[Intro]

Guitar 1
e|---------------------------------------|
B|---------------------------------------|
G|---7------5------7------5------5-5-----|
D|-----7-7----5-5----7-7----5-5--5-5-----|
A|---------------------------------------|
E|---------------------------------------|

Guitar 2
e|---------------------------|
B|---------------------------|
G|---7-----5-----3-----7-----|
D|---7-----5-----3-----7-----|
A|---5-----3-----1-----5-----|
E|---------------------------|


[Verse]

e|-------------------------------------------------------------------|
B|-------------------------------------------------------------------|
G|---7------------------------------5--------------------------------|
D|---7-7-7-7-7-7-7-7-7-7-7-7-7-7-7--5-5-5-5-5-5-5-5-5-5-5-5-5-5-5----|
A|---5-5-5-5-5-5-5-5-5-5-5-5-5-5-5--3-3-3-3-3-3-3-3-3-3-3-3-3-3-3----|
E|-------------------------------------------------------------------|

e|------------------------------------------------------------------|
B|------------------------------------------------------------------|
G|---3------------------------------7------------------------5-5----|
D|---3-3-3-3-3-3-3-3-3-3-3-3-3-3-3--7-7-7-7-7-7-7-7-7-7-7-7--5-5----|
A|---1-1-1-1-1-1-1-1-1-1-1-1-1-1-1--5-5-5-5-5-5-5-5-5-5-5-5--3-3----|
E|------------------------------------------------------------------|

e|-------------------------------------------------------------------|
B|--------------------------------------------------6---6---5-6------|
G|-------7-----7---7-----7-----7--------5-----5---5-5---5---5-5-5----|
D|---7-7-7-7-7-7-7-7-7-7-7-7-7-7-7--5-5-5-5-5-5-5-5-5-5-5-5-5-5-5----|
A|---5-5-5-5-5-5-5-5-5-5-5-5-5-5-5--3-3-3-3-3-3-3-3-3-3-3-3-3-3-3----|
E|-------------------------------------------------------------------|

e|--------------------|
B|--------------------|
G|---3-------3---5----|
D|---3---3---3---5----|
A|---1---3---1---3----|
E|-------1------------|


[Chorus]

e|-----------------5-----------------------|
B|-----------------5-------------6-6-5-----|
G|---7---3---5----2---3-------5--5-5-5-----|
D|---7---3---5---2----3---3---5--5-5-5-----|
A|---5---1---3--0-----1---3---3------------|
E|------------------------1----------------|

e|-----------------5------------------|
B|-----------------5----------4-4-----|
G|---7---3---5----2-----------3-3-----|
D|---7---3---5---2----5---3---1-1-----|
A|---5---1---3--0-----5---3-----------|
E|--------------------3---1-----------|


[Solo rythm]

same as the chorus but in a different key
e|--------------------------------|
B|--------------------------------|
G|-------8---10--7---8-------10---|
D|---5---8---10--7---8---8---10---|
A|---5---6---8---5---6---8---8----|
E|---3-------------------6--------|

e|--------------------------------------|
B|--------------------------------------|
G|-------8---10--7---8--------------7---|
D|---5---8---10--7---8---8---6-6----7---|
A|---5---6---8---5---6---8---6-6----5---|
E|---3-------------------6---4-4--------|


[Bridge]

Clean guitar
e|-------------------------0----------|
B|---3-----1-----3-----1-----1--------|
G|-----2-----0-----2-----0-----0------|
D|-------0-----0-----0-----------0----|
A|------------------------------------|
E|------------------------------------|


[Interlude]

Guitar 1
e|---------------------------------------|
B|---------------------------------------|
G|---7------5------7------5------5-5-----|
D|-----7-7----5-5----7-7----5-5--5-5-----|
A|---------------------------------------|
E|---------------------------------------|

Guitar 2
e|------|------------------------------|
B|------|------------------------------|
G|--5-5-|--7-----5-----3-------3---5---|
D|--5-5-|--7-----5-----3---3---3---5---|
A|--3-3-|--5-----3-----1---3---1---3---|
E|------|------------------1-----------|
Добавлено: 27.07.2013
Другие материалы по этой песне:
  • Аккорды и текст

Страница создана 27.07.2013
http://primanota.ru/reckless-love/wild-touch-chords.htm
Привет, Гость.
Предлагаем пройти революционный курс по гитаре.
Подарок от PrimaNota.Ru, забирай!