PrimaNota.ru - самый крупный в мире бесплатный архив песенных текстов, аккордов, табулатур и нот


Ratt - In Your Direction - текст песни, таба, бас-таба, видео

Регистрация Запомнить меня
Войти через:  Facebook Google Twitter Vk Yandex Mail.ru

Ratt - In Your Direction - текст песни, таба, бас-таба, видео

Печатать
Просмотров: 124
IN YOUR DIRECTION
As recorded by Ratt (From the 1984 Album OUT OF THE CELLAR)
Tablature (Tab) for Guitar
Transcribed by Pedro11Henrique
Words and Music by Stephen Pearcy
Arranged by Stephen Pearcy


A5

x 0 2 x x x     G5

3 5 x x x x     F#5

2 4 x x x x     B5

x 2 4 x x x
C5

x 3 5 x x x


Gtr I (Eb Ab Db Gb Bb Eb) - 'Rhythm 1'

Gtr II (Eb Ab Db Gb Bb Eb) - 'Rhythm 2'

Gtr III (Eb Ab Db Gb Bb Eb) - 'Lead'


 Intro
  Moderate Rock Q=126
  D5                                                  C5/D
 4/4
  Gtr I
  s s s s E s s s s s s E s s   s s s s E s s s s s s Q
|-----------------------------|--------------------------|
|-----------------------------|--------------------------|
|---------7-------------7-----|---------7-------------5--|
|-0-0-0-0-7-0-0-0-0-0-0-7-0-0-|-0-0-0-0-7-0-0-0-0-0-0-5--|
|-----------------------------|--------------------------|
|-----------------------------|--------------------------|


  D5                                                  C5/D
  s s s s E s s s s s s E s s   s s s s E s s s s s s Q
|-----------------------------|---------------------------|
|-----------------------------|---------------------------|
|---------7-------------7-----|---------7-------------5---|
|-0-0-0-0-7-0-0-0-0-0-0-7-0-0-|-0-0-0-0-7-0-0-0-0-0-0-5---|
|-----------------------------|---------------------------|
|-----------------------------|---------------------------|
|
| Gtr II
| s s s s E s s s s s s E s s   s s s s E s s s s s s Q
|-----------------------------|---------------------------|
|-----------------------------|---------------------------|
|---------7-------------7-----|---------7-------------5---|
|-0-0-0-0-7-0-0-0-0-0-0-7-0-0-|-0-0-0-0-7-0-0-0-0-0-0-5---|
|-----------------------------|---------------------------|
|-----------------------------|---------------------------|


  D5
  s s s s E s s s s s s E s s
|-----------------------------|
|-----------------------------|
|---------7-------------7-----|
|-0-0-0-0-7-0-0-0-0-0-0-7-0-0-|
|-----------------------------|
|-----------------------------|
|
| Gtr II
| s s s s E s s s s s s E s s
|-----------------------------|
|-----------------------------|
|---------7-------------7-----|
|-0-0-0-0-7-0-0-0-0-0-0-7-0-0-|
|-----------------------------|
|-----------------------------|


                        C5/D D5
  s s s s E s s s s s s Q    s s s s E s s s s s s E s s
|--------------------------|------------------------------|
|--------------------------|------------------------------|
|---------7-------------5--|---------7-------------7------|
|-0-0-0-0-7-0-0-0-0-0-0-5--|-0-0-0-0-7-0-0-0-0-0-0-7-0-0--|
|--------------------------|------------------------------|
|--------------------------|------------------------------|
|
| s s s s E s s s s s s Q    s s s s E s s s s s s E s s
|--------------------------|------------------------------|
|--------------------------|------------------------------|
|---------7-------------5--|---------7-------------7------|
|-0-0-0-0-7-0-0-0-0-0-0-5--|-0-0-0-0-7-0-0-0-0-0-0-7-0-0--|
|--------------------------|------------------------------|
|--------------------------|------------------------------|


  D5                                    C5
  |------6------| |-----6-----| |-----6-----| |----6----|
  S S   S S S   S S S S S S   S S S   S S S S S S S S S S
|----------------------------------------------------------||
|----------------------------------------------------------||
|-9p5h==7---------9p5h7---------9p5h==7--------------------||
|---------9p5h==7-------9p5h==7---------9p5h7-9p5h7--------||
|---------------------------------------------------9p5h7--||
|----------------------------------------------------------||
|
| s   s   s   s   E     s   s   s   s   E     E     E
|----------------------------------------------------------||
|----------------------------------------------------------||
|-----------------7----------------------------------------||
|-----------------7---------------------5-----------5------||
|-5---5---5---5---------5---5---5---5---3-----------3------||
|----------------------------------------------------------||


  A5
  Gtr II
  W                 +W                             +W
  |                  |                              |
  /                  /                              /

  Gtr I
  e e E e e E e e    E e e E e e  S    +S  +S  S    e e E e e E e e
|-----------------|------------------------------|------------------|
|-----------------|------------------------------|------------------|
|-----7-----7-----|--6-----6---------------------|------7-----7-----|
|-----5-----5-----|--7-----7-----[7]b9r(7)-(7)p5-|------5-----5-----|
|-0-0---0-0---0-0-|----0-0---0-0-----------------|--0-0---0-0---0-0-|
|-----------------|------------------------------|------------------|


                G5A5
  +H.           E E   W                 +W
   |            | |   |                  |
   /            / /   /                  /

   ~~~~~~~~~~~~~
   E  e e E e e E E   e e E e e E e e    E e e E e e  S    +S  +S  S
|-------------------|-----------------|------------------------------|
|-------------------|-----------------|------------------------------|
|--6------6-----7S9-|-----7-----7-----|--6-----6-----[6]b7r(6)-(6)p0-|
|--7------7-----5S7-|-----5-----5-----|--7-----7---------------------|
|-----0-0---0-0-----|-0-0---0-0---0-0-|----0-0---0-0-----------------|
|-------------------|-----------------|------------------------------|


       G5/A                        G5 A5
  +W                 +H.           E  E
   |                  |            |  |
   /                  /            /  /

           ~~~~~~~~~~~~~~~~~~~~
   e e E e e E e e    E  e e E E.S Q
|------------------|--------------------||
|------------------|--------------------||
|------7-----7-----|--6------6----------||
|------5-----5-----|--7------7-7p5------||
|--0-0---0-0---0-0-|-----0-0------------||
|------------------|---------------x\---||


  E F#G5E B5C5A A5
  E E E E E E E E   +W
  | | | | | | | |    |
  o / / o / / o /    /

  E E E e E E e E   +Q    e e e e Q
|-----------------|------------------|
|-----------------|------------------|
|-----------------|---------------0--|
|---------4-5---2-|-(2)/----------0--|
|---4-5---2-3-0-0-|-(0)---0-0-0-0-x--|
|---2-3-0---------|------------------|


  E F#G5E B5C5A B5
  E E E E E E E E   +W
  | | | | | | | |    |
  o / / o / / / /    /

  E E E e E E E E   +Q   E E E  E   E   E
|-----------------|----------2-(2)----------|
|-----------------|-------------2--(2)------|
|-----------------|-----------------4--(4)--|
|---------4-5---4-|-(4)----------------(4)--|
|---4-5---2-3-x-2-|-(2)--x-x----------------|
|---2-3-0---------|-------------------------|


  E F#G5E B5C5A A5                          E F#G5E B5C5A B5
  E E E E E E E E   +W                      E E E E E E E E
  | | | | | | | |    |                      | | | | | | | |
  o / / o / / x /    /                      o / / o / / x /

                                       ~
  E E E e E E E E   +Q    e s s  E s s Q    E E E e E E E E
|-----------------|-----------------------|-----------------|
|-----------------|-------------10-----8--|-----------------|
|-----------------|--------------9-----7--|-----------------|
|---------4-5---2-|-(2)/------------------|---------4-5---4-|
|---4-5---2-3-x-0-|-(0)---0-0-0----0-0----|---4-5---2-3-x-2-|
|---2-3-0---------|-----------------------|---2-3-0---------|


                                  G
  +W                 +H       +E  Q.
   |                  |        |  |
   /                  /        /  /

         PM-----------------|
  +Q   E E E E E E    E E E E  Q     Q
|------------------|---------------------||
|------------------|---------------------||
|------------------|---------------------||
|-(4)--------------|-----------4/--------||
|-(2)--2-x-x-x-x-x-|--x-x-x-x--2/----x\--||
|------------------|---------------------||


 Verse
  A5                A
  W                 +W                           +W
  |                  |                            |
  /                  /                            /

  e e E e e E e e    E e e E e e S   +S  +S  S    e e E e e E e e
|-----------------|----------------------------|------------------|
|-----------------|----------------------------|------------------|
|-----7-----7-----|--6-----6-----2b4r(2)-(2)p0-|------7-----7-----|
|-----5-----5-----|--7-----7-------------------|------5-----5-----|
|-0-0---0-0---0-0-|----0-0---0-0---------------|--0-0---0-0---0-0-|
|-----------------|----------------------------|------------------|


  A                                   A
  W                 W                 W
  E e e E e e E E   e e E e e E e e   E e e E e e  S    +S  +S  S
|-----------------|-----------------|-----------------------------|
|-----------------|-----------------|-----------------------------|
|-6-----6-----7S9-|-----7-----7-----|-6-----6-----[6]b7r(6)-(6)p0-|
|-7-----7-----5S7-|-----5-----5-----|-7-----7---------------------|
|---0-0---0-0-----|-0-0---0-0---0-0-|---0-0---0-0-----------------|
|-----------------|-----------------|-----------------------------|


                                       A5
  W                 H       E Q.       E E E E E E E E
                              |        | | | | | | | |
                              x        x x x x x x x x

  e e E e e E e e   E e e E e e  E E   e e E e e E e e
|-----------------|------------------|-----------------|
|-----------------|------------------|-----------------|
|-----7-----7-----|-6-----6------7S9-|-----7-----7-----|
|-----5-----5-----|-7-----7------5S7-|-----5-----5-----|
|-0-0---0-0---0-0-|---0-0---0-0------|-0-0---0-0---0-0-|
|-----------------|------------------|-----------------|


                                                            G5A5
  E E E E E E E        E      E E E E E E E E   E E E E E E E E
  | | | | | | |        |      | | | | | | | |   | | | | | | | |
  x x x x x x x        x      x x x x x x x x   x x x x x x / /

  E e e E e e S   +S  +S  S   e e E e e E e e   E e e E e e E E
|---------------------------|-----------------|-----------------|
|---------------------------|-----------------|-----------------|
|-6-----6-----2b4r(2)-(2)p0-|-----7-----7-----|-6-----6-----7S9-|
|-7-----7-------------------|-----5-----5-----|-7-----7-----5S7-|
|---0-0---0-0---------------|-0-0---0-0---0-0-|---0-0---0-0-----|
|---------------------------|-----------------|-----------------|


  A5
  E E E E E E E E   E E E E E E E        E
  | | | | | | | |   | | | | | | |        |
  x x x x x x x x   x x x x x x x        x

  e e E e e E e e   E e e E e e S   +S  +S  S
|-----------------|---------------------------|
|-----------------|---------------------------|
|-----7-----7-----|-6-----6-----2b4r(2)-(2)p0-|
|-----5-----5-----|-7-----7-------------------|
|-0-0---0-0---0-0-|---0-0---0-0---------------|
|-----------------|---------------------------|


                                A G5 A5
  E E E E E E E E   E E E E  E  E E  E
  | | | | | | | |   | | | |     | |  |
  x x x x x x x x   x x x x     o /  /

                          ~~~~~~
  e e E e e E e e   E e e E +Q    Q
|-----------------|---------------------||
|-----------------|---------------------||
|-----7-----7-----|-6-----6-(6)---------||
|-----5-----5-----|-7-----7-(7)---------||
|-0-0---0-0---0-0-|---0-0---------------||
|-----------------|---------------x\----||


   Chorus
    $
    E F#G5E B5C5A A5
    E E E E E E E E   +W
    | | | | | | | |    |
    o / / o / / x /    /

    E E E e E E E E   +Q    e e e e Q
||------------------|------------------|
||o-----------------|------------------|
||------------------|---------------0--|
||----------4-5---2-|-(2)/----------0--|
||o---4-5---2-3-x-0-|-(0)---0-0-0-0-x--|
||----2-3-0---------|------------------|


  E F#G5E B5C5A B5                           E F#G5A B5C5A A5
  E E E E E E E E   +W                       E E E E E E E E
  | | | | | | | |    |                       | | | | | | | |
  o / / o / / x /    /                       o / / o / / x /

  E E E E E E E E   +E  S S E S S E S S Q    E E E E E E E E
|-----------------|------------------------|------------------|
|-----------------|---------------2-----2--|------------------|
|-----------------|---------------4-----4--|------------------|
|---------4-5---4-|-(4)-----------4-----4--|---------4-5---2--|
|---4-5---2-3-x-2-|-(2)-x-x-x-x-x-2-x-x-2--|---4-5-x-2-3-x-0--|
|---2-3-x---------|------------------------|---2-3------------|


                       E F#G5E B5C5A B5
  +W                   E E E E E E E E
   |                   | | | | | | | |
   /                   o / / x / / x /

  +Q    e e  e e Q     E E E E E E E E
|--------------------|-----------------|
|--------------------|-----------------|
|----------------0---|-----------------|
|-(2)/-----------0---|---------4-5---4-|
|-(0)---0-0--0-0-x---|---4-5---2-3-x-2-|
|--------------------|---2-3-x---------|
|
| Gtr II
|            ~~    ~
|  Q    E E  Q   E E   W
|--------------------|-----------------|
|-----------10-----8-|-----------------|
|------------9-----7-|-----------------|
|--------------------|-----------------|
|--------------------|-----------------|
|--------------------|-----------------|


                          1.
                  To Coda
                                     G   A5
  +W                       +Q.   E E Q   E
   |                        |    |   |   |
   /                        /    x   o   /

                                     PM--|
  +Q   E E E  E   E   E    +H      E e E e
|---------------------2--|-(2)--------------||
|----------2-(2)------2--|-(2)--------------||
|-------------4--(4)-(4)-|-(4)--------------||
|-(4)-------------4--(4)-|-(4)--------------||
|-(2)--x-x---------------|------------------||
|------------------------|-----------0---0--||
|
|  W                        W
|------------------------|------------------||
|------------------------|------------------||
|------------------------|------------------||
|------------------------|------------------||
|------------------------|------------------||
|------------------------|------------------||


  A5 G     G5      A
                                |--------------7:3---------------|
  Q  E e e E e e   E e e E e e  S      +S    +S       +S    +S   E S
|----------------|---------------------------------------------------|
|----------------|---------------------------------------------------|
|-2--2-----7-----|-6-----6-----[2]b4==([2])r([2])b4==([2])r([2])p0---|
|-2--5-----5-----|-7-----7-------------------------------------------|
|-0----0-0---0-0-|---0-0---0-0---------------------------------------|
|-0--------------|---------------------------------------------------|


      G5            A           G A5
  e e E e e E e e   E e e E e e E E
|-----------------|-----------------|
|-----------------|-----------------|
|-----7-----7-----|-6-----6-----2S9-|
|-----5-----5-----|-7-----7-----5S7-|
|-0-0---0-0---0-0-|---0-0---0-0-----|
|-----------------|-----------------|


      G5            A
  e e E e e E e e   E e e E e e S   +S  +S  S
|-----------------|---------------------------|
|-----------------|---------------------------|
|-----7-----7-----|-6-----6-----2b4r(2)-(2)p0-|
|-----5-----5-----|-7-----7-------------------|
|-0-0---0-0---0-0-|---0-0---0-0---------------|
|-----------------|---------------------------|


      G5    G       A     A5
  e e E e e E e e   E E E E +E  E E E
|-----------------|--------------------||
|-----------------|--------------------||
|-----7-----2-----|-6-----2-(2)-----2/-||
|-----5-----5-----|-7-----2-(2)-----2/-||
|-0-0---0-0---0-0-|---0-0-0-(0)-----0--||
|-----------------|-------------0-3----||


  Q  E e e E e e   E e e E e e  S    +S  +S  S   e e E e e E e e
|----------------|-----------------------------|-----------------|
|----------------|-----------------------------|-----------------|
|----7-----7-----|-6-----6-----[2]b4r(2)-(2)p0-|-----7-----7-----|
|----5-----5-----|-7-----7---------------------|-----5-----5-----|
|------0-0---0-0-|---0-0---0-0-----------------|-0-0---0-0---0-0-|
|----------------|-----------------------------|-----------------|


  A           G5A5      G5            A
  E e e E e e E E   e e E e e E e e   E e e E e e S   +S  +S  S
|-----------------|-----------------|---------------------------|
|-----------------|-----------------|---------------------------|
|-6-----6-----7S9-|-----7-----7-----|-6-----6-----2b4r(2)-(2)p0-|
|-7-----7-----5S7-|-----5-----5-----|-7-----7-------------------|
|---0-0---0-0-----|-0-0---0-0---0-0-|---0-0---0-0---------------|
|-----------------|-----------------|---------------------------|


                                       2.
      G5            A           G5A5    N.C.
                                                  \1
  e e E e e E e e   E e e E e e E E     e e e e e Q.
|-----------------|------------------||----------------||
|-----------------|-----------------o||----------------||
|-----7-----7-----|-6-----6-----7S9--||----------------||
|-----5-----5-----|-7-----7-----5S7--||----------------||
|-0-0---0-0---0-0-|---0-0---0-0-----o||-2-2-2-2-2------||
|-----------------|------------------||-----------3----||


 Guitar Solo - Warren
  D5                                                                     C5
   s    s s s  E    s s  s s  s  s  E  s s   s s s s E   s s s   s   s s Q
|------------------------------------------|--------------------------------|
|------------------------------------------|--------------------------------|
|--------------7--------------------7------|---------7-------------------5--|
|--0----0-0-0--7----0-0--0-0--0--0--7--0-0-|-0-0-0-0-7---0-0-0---0---0-0-5--|
|------------------------------------------|--------------------------------|
|------------------------------------------|--------------------------------|
|
| Gtr III
|                        ~~~
|                                                            |--3--|
|  Q           Q         E    S  S  Q        E   E   S S S S S S   S S S Q
|------------------------------------------|--------------------------------|
|-12b13-------12b13-----12\----------------|--------------------------------|
|-12b14-------12b14-----12S==10----10\-----|-----7---x-7-x-x-7s8s==7p5---5--|
|-------------------------------12---------|---------------------------7----|
|------------------------------------------|-x------------------------------|
|------------------------------------------|--------------------------------|


  D5
  s    s     s    s     E         s    s     s    s     s     s     E        s         s
|--------------------------------------------------------------------------------------------|
|--------------------------------------------------------------------------------------------|
|-----------------------7-------------------------------------------7------------------------|
|-0----0-----0----0-----7---------0----0-----0----0-----0-----0-----7--------0---------0-----|
|--------------------------------------------------------------------------------------------|
|--------------------------------------------------------------------------------------------|
|
| |--------6---------|  |--------6--------|  |---3---|              |--3--|
| S  S    S  S  S    S  S  S   S  S  S    S  S  S    S  T  T  T  T  S  S  S  T  T  a   T  T
|--------------12s==13-17-(x)----13h17p==13-17s18s==17-13h17p13S12h13p12----12----(x)--------|
|---12h==13h15------------13--17-----------------------------------------15----15-----13p12h=|
|--------------------------------------------------------------------------------------------|
|--------------------------------------------------------------------------------------------|
|--------------------------------------------------------------------------------------------|
|--------------------------------------------------------------------------------------------|


                                                     C5
   s    s     s    s     E        s    s     s s s s Q
|-----------------------------------------------------------|
|-----------------------------------------------------------|
|------------------------7---------------------------5------|
|--0----0-----0----0-----7--------0----0-----0-0-0-0-5------|
|-----------------------------------------------------------|
|-----------------------------------------------------------|
|
|  |--------6---------|  |-------6--------|
|  S  S    S  S  S    S  S  S  S  S  S    S  Q       E  S S
|-----------------------------------------------------------|
|-13p12s==10-12p10------10----------------------------------|
|--------------------12----12p10----12------10---------10-7-|
|--------------------------------12------12-----------------|
|-----------------------------------------------------------|
|-----------------------------------------------------------|


  D5
   s     s   s  s E s s   s        s    s   s         E  s s
|------------------------------------------------------------|
|------------------------------------------------------------|
|-----------------7-----------------------------------7------|
|--0-----0---0--0-7-0-0---0--------0----0---0---------7--0-0-|
|------------------------------------------------------------|
|------------------------------------------------------------|
|
|                         |---------6----------|
|  E        +Q.          +S     S    S  S S    S     +E.   S
|------------------------------------------------------------|
|-10b13====(10)---------(10)r-(10)p==7----7------------------|
|--------------------------------------10-----10b11-(10)p==7-|
|------------------------------------------------------------|
|------------------------------------------------------------|
|------------------------------------------------------------|


                                                                 C5
   s   s         s  s    E           s  s    s    s         s  s Q
|----------------------------------------------------------------------------|
|----------------------------------------------------------------------------|
|------------------------7---------------------------------------5-----------|
|--0---0---------0--0----7-----------0--0----0----0---------0--0-5-----------|
|----------------------------------------------------------------------------|
|----------------------------------------------------------------------------|
|
|                                                    ~~~~~~~~~~~
|  |--------6---------|  |-------6--------|  |---3---|               |--3--|
|  S S    S     +E    S  S S  S     +E    S  S  S    S     +E    S S S  S  S
|----------------------------------------------------------------------------|
|----7---------------------7--------------------7----------------------------|
|--------10b11-(10)p==7------10b11-(10)p==7-(x)-----10b11-(10)p==x-----10S12-|
|-10--------------------10------------------10-------------------------------|
|----------------------------------------------------------------------------|
|----------------------------------------------------------------------------|


  D5
   s     s     s    s     E        s    s     s    s     s    s     E        s s
|--------------------------------------------------------------------------------|
|--------------------------------------------------------------------------------|
|-------------------------7-----------------------------------------7------------|
|--0-----0-----0----0-----7--------0----0-----0----0-----0----0-----7--------0-0-|
|--------------------------------------------------------------------------------|
|--------------------------------------------------------------------------------|
|
|                         |-------6--------|  |--------6---------|  |--3--|
|  T  T  T  T  T  S    T  S  S  S  S  S    S  S  S    S  S  S    S  S  S  S  E
|----------10h12h13---10----13S17p13-15------13S15h==18-15-17------15h17p15s22---|
|-10h12h13---------------12---------------17--------------------19---------------|
|--------------------------------------------------------------------------------|
|--------------------------------------------------------------------------------|
|--------------------------------------------------------------------------------|
|--------------------------------------------------------------------------------|


  N.C.
   +H                 H               W
|-(22)------------------------------|-----------------------------------|
|-----------------------------------|-----------------------------------|
|-----------------------------------|-----------------------------------|
|-----------------------------------|-----------------------------------|
|-----------------------------------|-----------------------------------|
|-----------------------------------|-----------------------------------|
|
| Gtr III                             Gtr III
|   |-3-|
|   S S S S S S S S S S S E S S S S   H.                     E     E
|-----------------------------------|----------------------<12>---<7>---|
|---7h8p7---7-----------------------|-----------------------------------|
|---------9---9-7-6---6-------------|-----------------------------------|
|-------------------9---9-7-x-x-x-x-|-----------------------------------|
|-----------------------------------|-----------------------------------|
|-----------------------------------|-0---------------------------------|
|
| Gtr II                              Gtrs I, II
|   |-3-|
|   S S S S S S S S S S S E S S S S   E  S S +S  S E S E S   S  S  S  S
|-----------------------------------|-----------------------------------|
|-----------------------------------|-----------------------------------|
|-----------------------------------|-----------------------------------|
|---4h5p4---4-----------------------|-----------------------------------|
|---------7---7-5-4---4-------------|-----------------------------------|
|-------------------7---7-5-x-x-x-x-|-0--x-0-(0)-x-0-x-0-x---0--0--0--0-|


                 D5
   W             s  s  s      s   E        s      s   s  s s s E s s
|--------------|-----------------------------------------------------|
|--------------|-----------------------------------------------------|
|--------------|------------------7----------------------------7-----|
|--------------|-0--0--0------0---7--------0------0---0--0-0-0-7-0-0-|
|--------------|-----------------------------------------------------|
|--------------|-----------------------------------------------------|
|
|  \1_________________________________________________________________
|  H.       Q    S  S  E         +E       +E         +H
|-<5>----------|---10-12pb13====(12)b13==(12)b15====(12)-------------|
|--------------|-x---------------------------------------------------|
|--------------|-----------------------------------------------------|
|--------------|-----------------------------------------------------|
|--------------|-----------------------------------------------------|
|--------------|-----------------------------------------------------|


                                                                              C5
    s   s s s  E        s            s           s          s     s    s       Q
|-----------------------------------------------------------------------------------|
|-----------------------------------------------------------------------------------|
|--------------7---------------------------------------------------------------5----|
|---0---0-0-0--7--------0------------0-----------0----------0-----0----0-------5----|
|-----------------------------------------------------------------------------------|
|-----------------------------------------------------------------------------------|
|
|              |------------6------------|       |------------6------------|
|  +Q          S  S  S  S     +S        +S      +S      +S     S  S  S     S   E E
|-(12)r-------10--------------------------------------------------------------------|
|----------------13p10--------------------------------------------------------------|
|----------------------12b14r(12)b14r==(12)b14r(12)b14r(12)-------------------------|
|-------------------------------------------------------------10-12-10--------------|
|------------------------------------------------------------------------(12)-10-8--|
|-----------------------------------------------------------------------------------|


  D5
  s s   s s     E         s s   s  s        s    s     E        s    s
|--------------------------------------------------------------------------|
|--------------------------------------------------------------------------|
|---------------7--------------------------------------7-------------------|
|-0-0---0-0-----7---------0-0---0--0--------0----0-----7--------0----0-----|
|--------------------------------------------------------------------------|
|--------------------------------------------------------------------------|
|
|       |-3--|                  |---------6---------|  |-------6--------|
| E     E    S  S  E.          +E     +S    S  S    S  S  S  S  S  S    S
|--------------13-15pb17======(15)---(15)r-13h17p==13-17s18s17-13h17p==13\-|
|-----------13--x----------------------------------------------------------|
|-----/14------------------------------------------------------------------|
|--------------------------------------------------------------------------|
|--------------------------------------------------------------------------|
|--------------------------------------------------------------------------|


                                                                    C5
    s    s     s    s     E          s      s    s    s    s   s    Q
|--------------------------------------------------------------------------------------|
|--------------------------------------------------------------------------------------|
|-------------------------7-----------------------------------------5------------------|
|---0----0-----0----0-----7----------0------0----0----0----0---0----5------------------|
|--------------------------------------------------------------------------------------|
|--------------------------------------------------------------------------------------|
|
|   |--------6---------|  |---------7----------| |-------6--------| |3-|
|   S  S    S  S  S    S  S  S  S  S    S S    S S  S   S  S S    S E  S     +S   +S
|-\12h13p==12S10h12p==10---------------------------------------------------------------|
|------------------------13p12h13p12p==10S8h==10p8h10p==8-----------8------------------|
|---------------------------------------------------------10-7---10---10b12r(10)-(10)--|
|--------------------------------------------------------------------------------------|
|--------------------------------------------------------------------------------------|
|--------------------------------------------------------------------------------------|


                                          D.S. al Coda
    F#C5  B5C5  A5            Esus4Dsus4  F#C5  B5C5  A5
  Gtrs I, II
                                   ~
  E E E e E E E E   +Q    E E  E E Q    E E E E E E E E
|-----------------|-------------------|-----------------||
|-----------------|-----------10---8--|-----------------||
|-----------------|------------9---7--|-----------------||
|---------4-5---2-|-(2)/--------------|---------4-5---4-||
|---4-5---2-3-x-0-|-(0)---x-x---------|---4-5---2-3-x-2-||
|---2-3-0---------|-------------------|---2-3-x---------||


  &
            B               F#C5  B5C5  A5
   E  e e e E S S E S S   E E E e E E E E
|-----------------------|-----------------|
|-----------2-----2-----|-----------------|
|-----------4-----4-----|-----------------|
|-(4)-------4-----4-----|---------4-5---2-|
|-(2)-2-2-2-2-x-x-2-x-x-|---4-5---2-3-x-0-|
|-----------------------|---2-3-0---------|


              Esus4  Dsus4  F#G5  B5C5  B5
                     ~
  +Q    E S S  E S S Q    E E E E E E E E
|-----------------------|-------------------|
|-------------10-----8--|-------------------|
|--------------9-----7--|-------------------|
|-(2)/------------------|---------4-5---4---|
|-(0)---x-x-x----x-x----|---4-5---2-3-x-2---|
|-----------------------|---2-3-x-----------|


  B5                          F#G5  B5C5  Esus4
  Gtr I
   W           +W           E E E e E E E  E    +Q    Q  H
|------------|------------|------------------|----------------*|
|------------|------------|---------------10-|-(10)\----------*|
|--4---------|-(4)--------|----------------9-|--(9)\----------*|
|-(4)--------|-(4)--------|---------4-5------|----------------*|
|-(2)--------|-(2)--------|---4-5---2-3-x----|----------------*|
|------------|------------|---2-3-0----------|----------------*|
|
| Gtr II
|  W            W           E E E e E E E  E    +Q    Q  H
|------------|------------|------------------|----------------*|
|------------|------------|------------------|----------------*|
|------------|------------|----------------2-|--(2)/----------*|
|------------|------------|---------4-5----2-|--(2)/----------*|
|------------|------------|---4-5---2-3-x----|----------------*|
|------------|------------|---2-3-0----------|----------------*|


Duration Legend
---------------
W - whole; H - half; Q - quarter; E - 8th; S - 16th; T - 32nd; X - 64th; a - acciaccatura
+ - note tied to previous; . - note dotted; .. - note double dotted
Uncapitalized letters represent notes that are staccato (1/2 duration)
Irregular groupings are notated above the duration line
Duration letters will always appear directly above the note/fret number it represents the
duration for.  Duration letters with no fret number below them represent rests.  Multi-
bar rests are notated in the form Wxn, where n is the number of bars to rest for.  Low
melody durations appear below the staff

Tablature Legend
----------------
 h   - hammer-on
 p   - pull-off
 b   - bend
 pb  - pre-bend
 r   - bend release (if no number after the r, then release immediately)
 /\  - slide into or out of (from/to "nowhere")
 s   - legato slide
 S   - shift slide
 - natural harmonic
[n]  - artificial harmonic
n(n) - tapped harmonic
 ~   - vibrato
 tr  - trill
 T   - tap
 TP  - trem. picking
 PM  - palm muting
\n/  - tremolo bar dip; n = amount to dip
 \n  - tremolo bar down
 n/  - tremolo bar up
/n\  - tremolo bar inverted dip
 =   - hold bend; also acts as connecting device for hammers/pulls
 <> - volume swell (louder/softer)
 x   - on rhythm slash represents muted slash
 o   - on rhythm slash represents single note slash

Misc Legend
-----------
 |  - bar
||  - double bar
||o - repeat start
o|| - repeat end
*|  - double bar (ending)
 :  - bar (freetime)
 $  - Segno
 &  - Coda
Tempo markers -  = BPM(8/16=s8/s16), where s8 = swing 8ths, s16 = swing 16ths
Добавлено: 26.10.2015
Другие материалы по этой песне:

Страница создана 20.03.2012
http://primanota.ru/ratt/in-your-direction-chords.htm
Привет, Гость.
Предлагаем пройти революционный курс по гитаре.
Подарок от PrimaNota.Ru, забирай!