PrimaNota.ru - самый крупный в мире бесплатный архив песенных текстов, аккордов, табулатур и нот


Ratt - Back For More - текст песни, таба, бас-таба, видео

Регистрация Запомнить меня
Войти через:  Facebook Google Twitter Vk Yandex Mail.ru

Ratt - Back For More - текст песни, таба, бас-таба, видео

Печатать
Просмотров: 227
Ratt Back For More
Intro is played on a twelve string but here is the tab.Just use chorus and reverb 
and it sounds kinda like it

Gtr. I (Robbin Crosby)
e|------------------||--------------||---------|
B|------------------||--------------||---------|
G|--2--4--4--2--2--2||--4--4--2--2--||--4--4--2|
D|--2--2--2--2--2--3||--3--3--3--4--||--3--3--3|
A|--0---------------||--------------||---------|
E|------------------||--------------||---------|

e|------------------------------|
B|-----0------0-----------------|
G|-------3------3---------4-4--6|
D|---6-----6------6-------5-5--7|
A|-5----------------6-----------|
E|--------------------0---------|

Gtr. II (Warren DeMartini)

e|---------------------------------------------|
B|---------------------------------------------|
G|---------------------------------------------|
D|--6-------6---4---2-------2---4-------4--11--|
A|--6-------6---4---2-------2---4-------4---9--|
E|--4-------4---2---0-------0---2-------2------|

e|-----------------0----------------------------------------------|
B|-------------------0---0-----0----------------------------------|
G|-2--4--4--2----2-----2---2-----2-----2--4--4--4--2--6--4-4-5-6--|
D|-2--2--2--2--3-------------3-----3---2--2--2--2--2--4--5-5-6-7--|
A|-0---------------------------------0----------------------------|
E|----------------------------------------------------------------|

Verse (Gtrs. I,II) Play 4x
e|----------------------|
B|----------------------|
G|--2h3-4-6---2h3-4-6/0-|
D|--2---4-4---2---4-4/0-|
A|----------------------|
E|----------------------|

Chorus (Gtr. I)
e|------------------||------------------------------|
B|------------------||------------------------------|
G|------------------||------------------------------|
D|-6--------6--4--2-||--2--4--------4--11-----------|
A|-6--------6--4--2-||--2--4--------4--9------------|
E|-4--------4--2--0-||--0--2--------2---------------|

(Gtr. II)
e|------------------||------------------------------|
B|------------------||------------------------------|
G|-2--4--4--2--2--2-||--2--4---4--4--2--6---4-4-5-6-|
D|-2--2--2--2--2--3-||--2--2---2--2--2--4---5-5-6-7-|
A|-0----------------||------------------------------|
E|------------------||------------------------------|
Добавлено: 08.06.2012
Другие материалы по этой песне:

Страница создана 21.02.2012
http://primanota.ru/ratt/back-for-more-chords.htm
Привет, Гость.
Предлагаем пройти революционный курс по гитаре.
Подарок от PrimaNota.Ru, забирай!