PrimaNota.ru - самый крупный в мире бесплатный архив песенных текстов, аккордов, табулатур и нот


Ratt - Lovin You Is A Dirty Job - таба, видео

Регистрация Запомнить меня
Войти через:  Facebook Google Twitter Vk Yandex Mail.ru

Ratt - Lovin You Is A Dirty Job - таба, видео

Печатать
Просмотров: 97
LOVIN' YOU'S A DIRTY JOB
As recorded by Ratt (From the 1990 Album DETONATOR)
Tablature (Tab) for Guitar
Transcribed by Pedro11Henrique
Words and Music by Ratt
Arranged by Ratt

Gtr I (E A D G B E) - 'Rhy'

Gtr II (E A D G B E) - 'Lead'

Gtr III (E A D G B E) - 'Overdub Solo'


 Intro
  Moderate Rock Q=100(16=s16Moderat
 4/4
  Gtr II
   E  E  E  S  S  +E   E  E  S  S
|---------------------------------|
|-10-10-10----10-(10)-10-10-------|
|----------11---------------11-11-|
|---------------------------------|
|---------------------------------|
|---------------------------------|


 e Rock Q=100
         ~~
   S  S  E  S  S S  S S S S     +S  +S  S E
|----11-11-----------------------------------||
|-10-------10--------------------------------||
|-------------11-9---------------------------||
|------------------11s9p7-9b11==(9)r(9)-7----||
|-----------------------------------------9\-||
|--------------------------------------------||


  E5    F#5    F#5
            ~~~~~~~~~~~~~~~~~~~~~~~~~~
   Q       +H             Q
|------------------------------------|
|-17b19---(17)-----------17pb19======|
|------------------------------------|
|------------------------------------|
|------------------------------------|
|------------------------------------|
|
| Gtr I
|                      PM
|  E.   S   E  E S S S S  S      S e
|------------------------------------|
|----------------5-4p2----4------2---|
|----------------5-4p2----4------2-4-|
|----------------------4-----------4-|
|--2----4------4---------------------|
|--0----2------2---------------------|


  A5            F#m/A
 ~~~~~~~~~~~~~~~~~~~~~
                         |---3---|
   +E    E         S  S  S  S    S  Q           E.        +S
|--------------------------14------17b19-------17b18-----(17)-|
|-(17)r-17pb19====17r-x-17------17----------------------------|
|-------------------------------------------------------------|
|-------------------------------------------------------------|
|-------------------------------------------------------------|
|-------------------------------------------------------------|
|
|   E.          S  E     S    S     S    S S S  S    S S   S
|-------------------------------------------------------------|
|-----------------------------------5----4p2----4----2--------|
|-----------------------------------5----4p2----4----2--------|
|---2-----------4----------------------------4-------------x--|
|---0-----------0--------2p===0----------------------------x--|
|-------------------------------------------------------------|


  E5         F#5     F#5
                 ~~~~~
                        |---3---|
   S   E.       +Q      S  S    S  E        +E.      +S
|-14-------------------14--------------------------------|
|-----17b19====(17)r------17---14------------------------|
|---------------------------------16b18====(16)r====(16)-|
|--------------------------------------------------------|
|--------------------------------------------------------|
|--------------------------------------------------------|
|
|                                        PM
|  E.        S   E   E  S    S     S     S   S  S e
|--------------------------------------------------------|
|-----------------------5----4p====2---------4--2--------|
|-----------------------5----4p====2---------4--2-4------|
|----------------------------------------4--------4------|
|--2---------4-------4-----------------------------------|
|--0---------2-------2-----------------------------------|


  A5              F#m/A
                                            ~~
   |--3---|  |---3---|  |--3--|  |---3---|
   S   S  S  S  S    S  S  S  S  S  S    S  Q        Q
|-------------------------------------------------------------||
|-14-----14---------------------------------------------------||
|-----16----16p14------16----14---------------------14\-------||
|-------------------16----16----16p14h==16-16-----------------||
|-------------------------------------------------------------||
|-------------------------------------------------------------||
|
|  E.             S     E        S    S     S S S S  S  E.
|-------------------------------------------------------------||
|-------------------------------------------5-4p2----2--------||
|-------------------------------------------5-4p2----2--------||
|--2--------------4-------------------------------4-----2b2.5-||
|--0--------------0--------------2p===0-----------------------||
|-------------------------------------------------------------||


 1st Verse
  E5 F#5 F#5      A5 B5  B5
  Gtr I
  E. S E E H      E. S E E S S S S S S S S
|---------------|--------------------------|
|---------------|----------5-4-----4-2---2-|
|---------------|--------4-5-4p2---4-2---2-|
|---------------|-2--4---4-------4-------x-|
|-2--4---4------|-0--2---2---------------x-|
|-0--2---2------|--------------------------|


  E5 F#5 F#5      A5 B5  B5
  E. S E E H      E. S E E S S S S S E.
|---------------|----------------------------|
|---------------|----------5-4-----2---------|
|---------------|--------4-5-4p2---2-2b2.5---|
|---------------|-2--4---4-------4-----------|
|-2--4---4------|-0--2---2-------------------|
|-0--2---2------|----------------------------|


  E5 F#5 F#5      A5 B5  B5                F#5           F#5
  E. S E E H      E. S E E S S S S S E S    q  Q  H       q  H     Q
|---------------|------------------------|-------------|---------------||
|---------------|----------5-4p2---4-----|-------------|---------------||
|---------------|--------4-5-4p2---4-----|-11----------|-11------------||
|---------------|-2--4---4-------4-------|-11----------|-11------------||
|-2--4---4------|-0--2---2-----------2s9-|--9----------|--9------------||
|-0--2---2------|------------------------|-------------|----------19\--||


 Chorus
  E5     F#5 F#5                     A5  F#m/A
  Gtr II
                ~~                                ~~~~~~~~~
   Q       E E  Q       S  S  E    a  E.  S  +E   E    +Q         Q
|-14\---------------------------|------------------------------------------|
|-17b19\------------------10----|-10s12--10-(10)---------------------------|
|--------------11-------9----11-|----------------11---(11)-------11\-------|
|------------9------------------|------------------------------------------|
|------------9------------------|------------------------------------------|
|-------------------------------|------------------------------------------|
|
| Gtr I
|                     PM
|  E.    S E E  S S S S S  S  e       E.  S   E   S S   S  S S S  S  S S S
|-------------------------------|------------------------------------------|
|---------------5-4p2---4--2----|-----------------------5--4p2----4--2-----|
|---------------5-4p2---4--2--4-|-----------------------5--4p2----4--2-----|
|---------------------4-------4-|-----2---4--------------------4---------x-|
|--2-----4---4------------------|-----0---0-------2p0--------------------x-|
|--0-----2---2------------------|------------------------------------------|


  E5    F#5        F#5
                   ~~~~~~
   E.    S     +E  E +Q        S S  e
|-------------------------------------|
|-------------------------------------|
|-11b14-11b14-(11)-9-(9)-------9-9-11-|
|-------------------------------------|
|-------------------------------------|
|-------------------------------------|
|
|                            PM
|  E.    S      E  E  S  S S S S S  e
|-------------------------------------|
|---------------------5--4p2---4-2----|
|---------------------5--4p2---4-2--4-|
|----------------------------4------4-|
|--2-----4---------4------------------|
|--0-----2---------2------------------|


     A5  F#m/A
                  ~~~~~~~~~
   a  E.  S  +E   E    +Q         Q
|------------------------------------------||
|-10s12--10-(10)---------------------------||
|----------------11---(11)-------11\-------||
|------------------------------------------||
|------------------------------------------||
|------------------------------------------||
|
|     E.  S   E   S S   S  S S S  S  E.
|------------------------------------------||
|-----------------------5--4p2----2--------||
|-----------------------5--4p2----2--------||
|-----2---4--------------------4-----2b2.5-||
|-----0---0-------2p0----------------------||
|------------------------------------------||


 2nd Verse
  E5 F#5 F#5      A5 B5  B5
  Gtr I
  E. S E E H      E. S E E S S S S S S S S
|---------------|--------------------------|
|---------------|----------5-4-----4-2---2-|
|---------------|--------4-5-4p2---4-2---2-|
|---------------|-2--4---4-------4-------x-|
|-2--4---4------|-0--2---2---------------x-|
|-0--2---2------|--------------------------|


  E5 F#5 F#5      A5 B5  B5
  E. S E E H      E. S E E S S S S S S S S
|---------------|--------------------------|
|---------------|----------5-4-----4-2---x-|
|---------------|--------4-5-4p2---4-2---x-|
|---------------|-2--4---4-------4---------|
|-2--4---4------|-0--2---2-----------------|
|-0--2---2------|--------------------------|


  E5 F#5 F#5                 A5 B5  B5
  E. S E E S S S S S S  e    E. S E E S S S S S S S S
|--------------------------|--------------------------|
|----------5-4-----4-------|----------5-4p2---4-2---x-|
|----------5-4p2---4-2h=4--|--------4-5-4p2---4-2---x-|
|----------------4-----(4)-|-2--4---4-------4---------|
|-2--4---4-----------------|-0--2---2-----------------|
|-0--2---2-----------------|--------------------------|


  F#5          F#5
  q  Q  H      q  H     Q
|------------|---------------||
|------------|---------------||
|------------|---------------||
|-4----------|-4-------------||
|-4----------|-4-------14\---||
|-2----------|-2-------14\---||


 Chorus
  $
  E5  F#5   F#5
  Gtr II
             ~~~~~~~
   E. S +E   E  +Q        E    E
|--------------------------------|
|-10--9-(9)----------------------|
|-----------11-(11)-------9---11-|
|--------------------------------|
|--------------------------------|
|--------------------------------|
|
| Gtr I
|                       PM
|  E. S  E   E   S  S S S S S  e
|--------------------------------|
|----------------5--4p2---4-2----|
|----------------5--4p2---4-2--4-|
|-----------------------4------4-|
|--2--4------4-------------------|
|--0--2------2-------------------|


     A5  F#m/A
                       ~~~~~~~~~
   a  E.  S     +S  S  E    +Q         Q
|-----------------------------------------------|
|-10s12--10b11-(10)-x---------------------------|
|---------------------11---(11)-------13\-------|
|-----------------------------------------------|
|-----------------------------------------------|
|-----------------------------------------------|
|
|     E.  S      E     S S   S  S S S  S  S S S
|-----------------------------------------------|
|----------------------------5--4p2----4--2-----|
|----------------------------5--4p2----4--2-----|
|-----2---4-------------------------4---------x-|
|-----0---0------------2p0--------------------x-|
|-----------------------------------------------|


  E5    F#5        F#5                    A5  F#m/A
                      ~                                ~~~~~~~~~
   E.    S     +E   e Q       S S  E    a  E.  S  +E   E    +Q        Q
|------------------------------------|-----------------------------------------|
|------------------------------------|-10s12--10-(10)--------------------------|
|-11b14-11b14-(11)-11-9-------9-9-11-|----------------11---(11)-------x\-------|
|------------------------------------|--------------------------------x\-------|
|------------------------------------|--------------------------------x\-------|
|------------------------------------|-----------------------------------------|
|
|                           PM
|  E.    S      E   E S S S S S S  e       E.  S   E   S S   S  S S S S  S S S
|------------------------------------|-----------------------------------------|
|---------------------5-4p2---4-2----|-----------------------5--4p2---4--2-----|
|---------------------5-4p2---4-2--4-|-----------------------5--4p2---4--2-----|
|---------------------------4------4-|-----2---4--------------------4--------x-|
|--2-----4----------4----------------|-----0---0-------2p0-------------------x-|
|--0-----2----------2----------------|-----------------------------------------|


  E5  F#5   F#5
             ~~~~~~~
   E. S +E   E  +Q        S  S  e
|---------------------------------|
|-10--9-(9)-----------------10----|
|-----------11-(11)-------9----11-|
|---------------------------------|
|---------------------------------|
|---------------------------------|
|
|                       PM
|  E. S  E   E   S  S S S S  S  e
|---------------------------------|
|----------------5--4p2---4--2----|
|----------------5--4p2---4--2--4-|
|-----------------------4-------4-|
|--2--4------4--------------------|
|--0--2------2--------------------|


                                     To Coda
     A5  B5           B5
                       ~~~~~~~
   a  E.  S     +S  S  E  +Q         Q
|---------------------------------------------|
|-10s12--10b11-(10)-x-------------------------|
|---------------------11-(11)-------13\-------|
|---------------------------------------------|
|---------------------------------------------|
|---------------------------------------------|
|
|     E.  S      E     E   S  S S S  S  S S S
|---------------------------------------------|
|--------------------------5--4p2----4--------|
|----------------------4---5--4p2----4--------|
|-----2---4------------4----------4-----------|
|-----0---2------------2----------------2h4s9-|
|---------------------------------------------|


  F#5           F#5
   q  Q  H       q  H     Q
|-------------|---------------||
|-------------|---------------||
|-11----------|-11------------||
|-11----------|-11------------||
|--9----------|--9------------||
|-------------|----------19\--||
|
|  q  Q  H       q  H     Q
|-------------|---------------||
|-------------|---------------||
|-------------|---------------||
|--4----------|--4------------||
|--4----------|--4------------||
|--2----------|--2-------19\--||


 Bridge
  C#5     B5       A5            E5     B5C#5
  E E E E E. S +E  E    E  E E E E. S S E.
|---0-----0----------|-----0------------------|
|-----4---0--4-(4)---|--4----4---5--4---4-----|
|-------4----------6-|---------4-4--4---4-----|
|--------------------|------------------4-----|
|--------------------|------------------------|
|--------------------|------------------------|
|
| H       Q.       E   +H        Q    S E  S
|--------------------|------------------------|
|--------------------|------------------------|
|-6-------4--------2-|-(2)--------------------|
|-6-------4--------2-|-(2)-------2------4-(6)-|
|-4-------2--------0-|-(0)-------2------2s=4--|
|--------------------|-----------0----0-------|


  C#5     B5       A5
  E E E E E. S +E  E    E  E E E E. S +E  E
|---0-----0----------|-----0-----0----------|
|-5---4---0--4-(4)---|--4----4------4-(4)---|
|-6-----4----------6-|---------4----------4-|
|-6------------------|----------------------|
|--------------------|----------------------|
|--------------------|----------------------|
|
| H       Q.       E   +W
|--------------------|----------------------|
|--------------------|----------------------|
|-6-------4--------2-|-(2)------------------|
|-6-------4--------2-|-(2)------------------|
|-4-------2--------0-|-(0)------------------|
|--------------------|----------------------|


  E5      D5         C5
  E E E E E  S S +E  S S    E  E E  E  +Q.   E
|------------------------|---------------------||
|-8-8-7---8--7h8-(8)-8p7-|-------7-(7)-(7)-----||
|-9-----7----------------|--9--7----7--(7)---7-||
|-9----------------------|---------------------||
|------------------------|---------------------||
|------------------------|---------------------||
|
| H       Q.         E     +W
|------------------------|---------------------||
|------------------------|---------------------||
|-9-------7----------5---|-(5)-----------------||
|-9-------7----------5---|-(5)-----------------||
|-7-------5----------3---|-(3)-----------------||
|------------------------|---------------------||


 Chorus
  E5  F#5   F#5
             ~~~~~~~
   E. S +E   E  +Q        E    e
|---------------------------------|
|-10--9-(9)-----------------------|
|-----------11-(11)-------9---11--|
|---------------------------------|
|---------------------------------|
|---------------------------------|
|
|                       PM
|  E. S  E   E   S  S S S S S  e
|---------------------------------|
|----------------5--4p2---4-2-----|
|----------------5--4p2---4-2-(4)-|
|-----------------------4------4--|
|--2--4------4--------------------|
|--0--2------2--------------------|


     A5  B5
                     ~~~~~~~~~
   a  E.  S     +E   E    +E.     S  Q
|---------------------------------------------|
|-10s12--10b11-(10)---------------------------|
|-------------------11---(11)-----x-----------|
|-----------------------------------13\-------|
|---------------------------------------------|
|---------------------------------------------|
|
|     E.  S      E   S S   S  S S S  S  S S S
|---------------------------------------------|
|--------------------------5--4p2----4--2-----|
|--------------------------5--4p2----4--2-----|
|-----2---4-----------------------4---------x-|
|-----0---2----------2p0--------------------x-|
|---------------------------------------------|


  E5    F#5        F#5
                        ~~~~~
   E.    S     +E   S s S E.    S  S  S  S
|------------------------------------------|
|------------------------------------------|
|-11b14-11b14-(11)-11-9-9-9-----9----------|
|---------------------------------11s=9p=7-|
|------------------------------------------|
|------------------------------------------|
|
|                             PM
|  E.    S      E   E   S S S S S  S  e
|------------------------------------------|
|-----------------------5-4p2---4--2-------|
|-----------------------5-4p2---4--2-(4)---|
|-----------------------------4-------4----|
|--2-----4----------4----------------------|
|--0-----2----------2----------------------|


     A5  B5
                                   Gtr III
                  ~~~~~~~~~
   a  E.  S  +E   E    +Q        S  S  e
|------------------------------------------||
|-10s12--10-(10)----------------------10---||
|----------------11---(11)---------11------||
|------------------------------------------||
|------------------------------------------||
|------------------------------------------||
|
|                   PM           PM      PM
|     E.  S   E   S S   S  S S S S  S  S s
|------------------------------------------||
|--------------------------5p4------4p=2---||
|-----------------2-----2--5p4-2----4p=2---||
|-----2---4---------4------------4-------2-||
|-----0---2--------------------------------||
|------------------------------------------||


 Guitar Solo
  E5          F#5                F#5
   E.      a   +S       +E    a   +E       +S     a   +E.           a   +E         S  a  +S
|---------------------------------------------------------------------------------12---------|
|-12b14==(12)r(12)b14==(12)-(12)r(12)b14==(12)--(12)r(12)b14======(12)r(12)b14=======12r(12)-|
|--------------------------------------------------------------------------------------------|
|--------------------------------------------------------------------------------------------|
|--------------------------------------------------------------------------------------------|
|--------------------------------------------------------------------------------------------|
|
|                                                               PM
|  E.           S        E         E        S          S      S S        S      S  e
|--------------------------------------------------------------------------------------------|
|-------------------------------------------4b5r=======4p=====2----------4p=====2------------|
|-------------------------------------------4b5r=======4p=====2----------4p=====2------------|
|---------------------------------------------------------------4------------------4---------|
|--2------------4------------------4---------------------------------------------------------|
|--0------------2------------------2---------------------------------------------------------|


  A5   B5  B5
              |------3------|
   +H         S      +S     S  S S  S  S S  S
|--------------------------------9------------|
|-(12)-------12pb13r(12)p==10-12---10---------|
|-------------------------------------11p9----|
|------------------------------------------11-|
|---------------------------------------------|
|---------------------------------------------|
|
|                                PM      PM
|   E. S E E  S          S     S S  S  S e
|---------------------------------------------|
|-------------5----------4----------2--2------|
|----------4--5----------4p====2----2--2------|
|---2--4---4---------------------4-------4----|
|---0--2---2----------------------------------|
|---------------------------------------------|


  E5         F#5   F#5
                   PM|   PM
   S  S  a S S S S S S S S S  S S  S  e
|----------------------------------------|
|----------------------------------------|
|-11--9-------------------------9----11--|
|-------11s9-7-9-7-----7---9s11---11-----|
|------------------9-9---9---------------|
|----------------------------------------|
|
|                             PM      PM
|  E.        S E   E   S S S  S S  S  e
|----------------------------------------|
|----------------------5-4p2----4--2-----|
|----------------------5-4p2----4--2-(4)-|
|-----------------------------4-------4--|
|--2---------4-----4---------------------|
|--0---------2-----2---------------------|


  A5     B5         B5
                        ~~~~~~~~~                 PM
   S   E  S  +S   S  S  S  +Q.               +S   S
|-----12-12-(12)------------------------------------|
|-10----------------12-12-(12)--------------(12)\-0-|
|----------------11----11-(11)--------------(11)\---|
|---------------------------------------------------|
|---------------------------------------------------|
|---------------------------------------------------|
|
|  E.     S   E      S  S   S   +S  S S S S   e
|---------------------------------------------------|
|---------------------------4b5r(4)p2---4p2---------|
|--------------------4--x---4b5r(4)p2---4p2---------|
|--2------4----------4--x-------------4-------4-----|
|--0------2----------2--x---------------------------|
|---------------------------------------------------|


  E5      F#5       F#5
  PM            ~~~~~~~~~~~~~
      |--3---|                 |---3---|
  e   S S    S  Q      +E      S  S    S  Q
|----12-9---12-14-----(14)----14-11---14-11b12======|
|-0-------------------------------------------------|
|---------------------------------------------------|
|---------------------------------------------------|
|---------------------------------------------------|
|---------------------------------------------------|
|
|                                   PM
| E.      S     S S e   S   S  S    S     S     S e
|---------------------------------------------------|
|-----------------------4b5r4p=2----------4p====2---|
|-----------------------4b5r4p=2----------4p====2---|
|-----------------------------------4-------------4-|
|-2-------4-------2-4-------------------------------|
|-0-------2---------2-------------------------------|


       A5         B5          B5
             |--3---|  |-3--|  |--3---|  |----3-----| |--3---|        |-3-|
    a   +E   S  S   S  S  S S  S  S   S  S    S     S S  S   S   S S  S S S
|-(11)r(11)-12p11p==9-11----9-------------------------------------------------|
|------------------------12---10h12---9h10----------9-------------------------|
|--------------------------------------------11-------9h11p==9-[11]9----------|
|--------------------------------------------------------------------11s9p7---|
|-----------------------------------------------------------------------------|
|-----------------------------------------------------------------------------|
|
|        E.       S    E       S    S    S      +S    S    S     S S  e
|-----------------------------------------------------------------------------|
|----------------------------------------4b5r===(4)p==2----------4p2----------|
|------------------------------4----x----4b5r===(4)p==2----------4p2----------|
|--------2--------4------------4----x----------------------4----------4-------|
|--------0--------2------------2----x-----------------------------------------|
|-----------------------------------------------------------------------------|


  E5   F#5      F#5
     ~~                             ~~
                 |-3--|  |---3---|             |--3--|
  S  E S +S   S  S S  S  S  S    S  E    S  S  S  S  S
|------------------------------------------------------|
|---------------------------------------14----17p14----|
|------9-(9)----11p9-11s14-11---14s16------16-------17-|
|-9s11-------11----------------------------------------|
|------------------------------------------------------|
|------------------------------------------------------|
|
|                                     PM
| E.   S  S   S  e       S    S     S S  S  S  e
|------------------------------------------------------|
|------------------------5----4p====2----4-------------|
|------------------------5----4p====2----4--2----------|
|-------------------------------------4--------4-------|
|-2----4------0--4-------------------------------------|
|-0----2---------2-------------------------------------|


  A5                 B5             B5
   |--3---|              |---3----|  |--3--|  |---3---|  |---3---|  |---3---|
   S   S  S      +E     +S   +S   S  S  S  S  S  S    S  S  S    S  S  S    S  S  S
|-14-----16b17==(16)---(16)r(16)-14h16p14----14-----------------------------------------||
|-----14----------------------------------17----17p==14----14---------------------------||
|-------------------------------------------------------17------17-16p14------14-16b18--||
|--------------------------------------------------------------------------16-----------||
|---------------------------------------------------------------------------------------||
|---------------------------------------------------------------------------------------||
|
|  E.                S   E           E        S    S     S    S     S    S     S  S
|---------------------------------------------------------------------------------------||
|---------------------------------------------5----4p====2----------4----2--------------||
|------------------------------------4--------5----4p====2----------4----2--------------||
|--2-----------------4---------------4------------------------4-------------------------||
|--0-----------------2---------------2-----------------------------------------2s=4-----||
|---------------------------------------------------------------------------------------||


 Bridge
  C#5          B5       A5              E5         B5   C#5
          ~~~~~~~~~~~~~~~~~~~~~~~
   +Q     H.                 +Q.     E  E   E    E    E
|-------------------------|---------------------------------|
|-------------------------|----------x\---------------------|
|-(16)---16---------------|-(16)-----x\----16p==14s==13-----|
|-------------------------|---------------------------------|
|-------------------------|---------------------------------|
|-------------------------|---------------------------------|
|
| Gtr II
|   E  E  E  E E. S +E  E     E  E E E  E.    S  S E.
|------0-------0----------|------0--------------------------|
|---------4----0--4-(4)---|---4----4----5-----4----4--------|
|------------4----------6-|----------4--4-----4----4--------|
|-------------------------|------------------------4--------|
|-------------------------|---------------------------------|
|-------------------------|---------------------------------|
|
| Gtr I
|   H          Q.       E    +H         Q        S E     S
|-------------------------|---------------------------------|
|-------------------------|---------------------------------|
|---6----------4--------2-|--(2)----------------------------|
|---6----------4--------2-|--(2)--------2----------4----(6)-|
|---4----------2--------0-|--(0)--------2----------2s====4--|
|-------------------------|-------------0--------0----------|


  C#5          B5             A5
                              ~~~~~~~~
   H.                +S   +S  E   +E   E E  a E E  S S  S  S E
|-------------------------------|-------------------------------|
|-------------------------------|-------------------------------|
|-11b13=============(11)r(11)-9-|-(9)---------------------------|
|-------------------------------|-----11-9----------------------|
|-------------------------------|----------11s9p7--9p0--7--7----|
|-------------------------------|----------------------------9--|
|
|  E     E E E E. S  +E       E    E   E E    E E.   S +E    E
|--------0-----0----------------|------0--------0---------------|
|--5-------4---0--4--(4)--------|--4-----4-----------4-(4)------|
|--6---------4----------------6-|-------------4--------------4--|
|--6----------------------------|-------------------------------|
|-------------------------------|-------------------------------|
|-------------------------------|-------------------------------|
|
|  H           Q.             E   +W
|-------------------------------|-------------------------------|
|-------------------------------|-------------------------------|
|--6-----------4--------------2-|-(2)---------------------------|
|--6-----------4--------------2-|-(2)---------------------------|
|--4-----------2--------------0-|-(0)---------------------------|
|-------------------------------|-------------------------------|


                                          D.S. al Coda
    E5       D5              C5
                        \1.5
  a  H        +E   E    Q           +H           H
|--------------------------------|----------------------||
|--------------------------------|----------------------||
|--------------------------------|----------------------||
|-----------------12-------------|----------------------||
|-9s10-------(10)------10--------|-(10)-----------------||
|--------------------------------|----------------------||
|
|    E E E E   E   S S +E    S S     E  E E  E  +Q.   E
|--------------------------------|----------------------||
|----8-8-7-----8---7h8-(8)---8p7-|--------7-(7)-(7)-----||
|----9-----7---------------------|---9--7----7--(7)---7-||
|----9---------------------------|----------------------||
|--------------------------------|----------------------||
|--------------------------------|----------------------||
|
|    H         Q.            E      +W
|--------------------------------|----------------------||
|--------------------------------|----------------------||
|----9---------7-------------5---|--(5)-----------------||
|----9---------7-------------5---|--(5)-----------------||
|----7---------5-------------3---|--(3)-----------------||
|--------------------------------|----------------------||


  &
  F#5
  Gtr II
   E       E       E       S  S       +S   S  E       +E   e
|------------------------------------------------------------|
|-10b10.5-10b10.5-10b10.5----10b10.5-(10)----10b10.5r(10)----|
|-------------------------11--------------11--------------11-|
|------------------------------------------------------------|
|------------------------------------------------------------|
|------------------------------------------------------------|
|
| Gtr I
|  q               Q                   H
|------------------------------------------------------------|
|------------------------------------------------------------|
|------------------------------------------------------------|
|--4---------------------------------------------------------|
|--4---------------------------------------------------------|
|--2---------------------------------------------------------|


   S  S  S     +S   S  S S  S S S S     +S  +S  S E
|----------------------------------------------------||
|-10-12-12b14r(12)-10--------------------------------||
|---------------------11-9---------------------------||
|--------------------------11s9p7-9b11==(9)r(9)-7----||
|-------------------------------------------------9\-||
|----------------------------------------------------||
|
|  W
|----------------------------------------------------||
|----------------------------------------------------||
|----------------------------------------------------||
|----------------------------------------------------||
|----------------------------------------------------||
|----------------------------------------------------||


 Out-Chorus
  E5 F#5 F#5                               A5   F#m/A
                                             ~~~~
  H        E     S       +S      +Q         +H            Q        Q
|----------------------------------------|---------------------------------|
|--------------[17]pb19r(17)b19-(17)-----|-(17)---------(17)s======2s======|
|----------------------------------------|---------------------------------|
|----------------------------------------|---------------------------------|
|----------------------------------------|---------------------------------|
|----------------------------------------|---------------------------------|
|
|                         PM
| E. S E E S S   S        S       S  S e     E. S E S S   S  S S S S S S S
|----------------------------------------|---------------------------------|
|----------5-4p==2----------------4--2---|----------------5--4p2---4-2-----|
|----------5-4p==2----------------4--2-4-|----------------5--4p2---4-2-----|
|-------------------------4------------4-|---2--4----------------4-------x-|
|-2--4---4-------------------------------|---0--0---2p0------------------x-|
|-0--2---2-------------------------------|---------------------------------|


  E5       F#5     F#5                A5  B5      B5
                              ~~                      ~~~
   S  S  S  S  +H             Q        E.  S  +E   E  E.     S  +S  E.
|-------14-17-(17)-----------14-----|-----14-(14)-----------14-(14)------|
|-11s17-----------------------------|-17----------14-17------------14----|
|-----------------------------------|------------------------------------|
|-----------------------------------|------------------------------------|
|-----------------------------------|------------------------------------|
|-----------------------------------|------------------------------------|
|
|                          PM
|  E.       S   E  E S S S S  S S e    E.  S   E   E  S S S  S   S  S  e
|-----------------------------------|------------------------------------|
|--------------------5-4p2----4-2---|----------------------------4p=2----|
|--------------------5-4p2----4-2-4-|--------------4--2h4p2------4p=2----|
|--------------------------4------4-|--2---4-------4---------4---------4-|
|--2--------4------4----------------|--0---2-------2---------------------|
|--0--------2------2----------------|------------------------------------|


  E5  F#5        F#5
  Gtr I
   W
|----------------------------------------------|
|----------------------------------------------|
|----------------------------------------------|
|----------------------------------------------|
|----------------------------------------------|
|----------------------------------------------|
|
| Gtr II
|                   ~~~~~~~
|  E.  S     +E  S  S  +Q         S  a  E    S
|-19--17b18-(17)-x-----------------------------|
|------------------19-(19)-------17------------|
|-----------------------------------18s16p==14-|
|----------------------------------------------|
|----------------------------------------------|
|----------------------------------------------|
|
| Gtr I
|                              PM
|  E.  S      E  E      S  S S S  S     S e
|----------------------------------------------|
|-----------------------5--4p2----4-----2------|
|-----------------------5--4p2----4-----2-4----|
|------------------------------4----------4----|
|--2---4---------4-----------------------------|
|--0---2---------2-----------------------------|


  A5    F#m/A
                           ~~~~
   E.    S     +E   e      Q         S  S  e
|-----------------------------------------------|
|-----------------------------------------------|
|-11b14-11b14-(11)-11------9---------9--9-11----|
|-----------------------------------------------|
|-----------------------------------------------|
|-----------------------------------------------|
|
|                      ~~~~~~~
|  E.    S     +E   S  S  +Q         S  S  S  S
|-----------------------------------------------|
|-----------------------------------------------|
|-16----14b15-(14)--x---------------------------|
|---------------------16-(16)-------14----------|
|--------------------------------------16s14p12-|
|-----------------------------------------------|
|
|  E.    S      E   S  S   S  S S S  S  S  S  S
|-----------------------------------------------|
|--------------------------5--4p2----4--2-------|
|--------------------------5--4p2----4--2-------|
|--2-----4------------------------4-----------x-|
|--0-----0----------2p=0----------------------x-|
|-----------------------------------------------|


  E5  F#5     F#5
  Gtr II
                     ~~~~~~~~~~~
   E.  S  +E   S  S  Q        E    S  S
|---------------------------------------|
|---------------------------------------|
|---------------------------------------|
|-14--12-(12)---------------------------|
|----------------------------12---14s16-|
|-------------12-13-14------------------|
|
| Gtr I
|                          PM
|  E.  S   E   E     S S S S  S S  e
|---------------------------------------|
|--------------------5-4p2----4-2-------|
|--------------------5-4p2----4-2--4----|
|--------------------------4-------4----|
|--2---4-------4------------------------|
|--0---2-------2------------------------|


  A5              B5            B5                                  E5
   |--3---|  |---3---|  |--3--|  |--3--|  |---3----|  |--3--|  |---3----|  |--3--|
   S   S  S  S  S    S  S  S  S  S  S  S  S  S     S  S  S  S  S  S     S  S  S  S
|----------------------------------17h19-16-17----19-21-17s16------------------------|
|----------------------------17-19----------------------------17p14----17-14----14---|
|-14-----14-16-13---14-16s18-------------------------------------------------17------|
|-----16-----------------------------------------------------------------------------|
|------------------------------------------------------------------------------------|
|------------------------------------------------------------------------------------|
|
|  E.             S     E        e        S    E.              S    E.
|------------------------------------------------------------------------------------|
|------------------------------------------------------------------------------------|
|--------------------------------4---------------------------------------------------|
|--2--------------4--------------4---------------------------------------------------|
|--0--------------2--------------2--------2----0---------------2----2----------------|
|-------------------------------------------------------------------0----------------|


  E5                     F#5     F#5
                                        ~~
   |----3-----|  |----3-----|
   S     +S   S  S  S       S  E  E     Q        e    e
|-------------------------------------------------------|
|-------------------------------------------------------|
|-16b17r(16)p14----14b15---------14b15------------------|
|---------------16---------16-16-------16-------14---16-|
|-------------------------------------------------------|
|-------------------------------------------------------|
|
|                                             PM
|  E.                    S     E  E     S S S S  S S  e
|-------------------------------------------------------|
|---------------------------------------5-4p2----4-2----|
|---------------------------------------5-4p2----4-2--4-|
|---------------------------------------------4-------4-|
|--2---------------------4--------4---------------------|
|--0---------------------2--------2---------------------|


  A5  F#m/A
                                       |---3---|
   E.  S     +E   S  S E    S  S S  S  S  S    S
|----------------------------------17p14------14-|
|----------------------------------------14------|
|-16--14b15-(14)-16-14-----13s14-----------------|
|------------------------------------------------|
|------------------------------------------------|
|------------------------------------------------|
|
|  E.  S      E   S  S S S  S  S S  S  S    S
|------------------------------------------------|
|----------------------5-4p=2----4--2------------|
|----------------------5-4p=2----4--2------------|
|--2---4-----------------------4------------x----|
|--0---0----------2p=0----------------------x----|
|------------------------------------------------|


  E5             F#5           F#5
   |--3--|  |---3---|  |--3--|  |3-|  |---3---|  |---3---|        |--3--|
   S  S  S  S  S    S  S  S  S  S  E  S  S    S  S  S    S  S  S  S  S  S
|-17p14-------------------------------------------------------------------|
|-------14----------------------------------------------------------------|
|----------17p16p==14-16p14----14----14------14-16p14------16p14----------|
|---------------------------16----16----16--------------16-------16p14----|
|----------------------------------------------------------------------16-|
|-------------------------------------------------------------------------|
|
|                                                     PM
|  E.            S     E        E     S    S     S    S     S  S  e
|-------------------------------------------------------------------------|
|-------------------------------------5----4p====2----------4--2----------|
|-------------------------------------5----4p====2----------4--2--4-------|
|-----------------------------------------------------4-----------4-------|
|--2-------------4--------------4-----------------------------------------|
|--0-------------2--------------2-----------------------------------------|


  A5     F#m/A
                                           ~~
   e   S  S  E  S  S  E    S  S  S  S      E
|---------------------------------------------|
|-----14-16-16-14-16-16---14-16-16-16-----14--|
|-----14-16-16-14-16-16---14-16-16-16-----14--|
|-14------------------------------------------|
|---------------------------------------------|
|---------------------------------------------|
|
|  E.     S  E  S  S  S S  S  S  S  E.
|---------------------------------------------|
|---------------------5-4p=2-----2------------|
|---------------------5-4p=2-----2------------|
|--2------4-------------------4-----2b2.5-----|
|--0------0-----2p=0--------------------------|
|---------------------------------------------|


  E5   F#5 F#5                       A5   F#m/A
    ~~~~
   +Q.     Q      E        +Q         +Q    Q     H
|----------------------------------|------------------------------*|
|-(14)-----------------------------|------------------------------*|
|-(14)-----------------------------|------------------------------*|
|----------------16b19====(16)r====|=(16)-------------------------*|
|----------------------------------|------------------------------*|
|----------------------------------|------------------------------*|
|
|                       PM
|   E. S E E S S  S     S   S  S e     E. S E S S S S S S S S S S
|----------------------------------|------------------------------*|
|------------5-4p=2---------4--2---|--------------5-4p2---4-2-----*|
|------------5-4p=2---------4--2-4-|--------------5-4p2---4-2-----*|
|-----------------------4--------4-|---2--4-------------4-------x-*|
|---2--4---4-----------------------|---0--0---2p0---------------x-*|
|---0--2---2-----------------------|------------------------------*|


Duration Legend
---------------
W - whole; H - half; Q - quarter; E - 8th; S - 16th; T - 32nd; X - 64th; a - acciaccatura
+ - note tied to previous; . - note dotted; .. - note double dotted
Uncapitalized letters represent notes that are staccato (1/2 duration)
Irregular groupings are notated above the duration line
Duration letters will always appear directly above the note/fret number it represents the
duration for.  Duration letters with no fret number below them represent rests.  Multi-
bar rests are notated in the form Wxn, where n is the number of bars to rest for.  Low
melody durations appear below the staff

Tablature Legend
----------------
 h   - hammer-on
 p   - pull-off
 b   - bend
 pb  - pre-bend
 r   - bend release (if no number after the r, then release immediately)
 /\  - slide into or out of (from/to "nowhere")
 s   - legato slide
 S   - shift slide
 - natural harmonic
[n]  - artificial harmonic
n(n) - tapped harmonic
 ~   - vibrato
 tr  - trill
 T   - tap
 TP  - trem. picking
 PM  - palm muting
\n/  - tremolo bar dip; n = amount to dip
 \n  - tremolo bar down
 n/  - tremolo bar up
/n\  - tremolo bar inverted dip
 =   - hold bend; also acts as connecting device for hammers/pulls
 <> - volume swell (louder/softer)
 x   - on rhythm slash represents muted slash
 o   - on rhythm slash represents single note slash

Misc Legend
-----------
 |  - bar
||  - double bar
||o - repeat start
o|| - repeat end
*|  - double bar (ending)
 :  - bar (freetime)
 $  - Segno
 &  - Coda
Tempo markers -  = BPM(8/16=s8/s16), where s8 = swing 8ths, s16 = swing 16ths
Добавлено: 26.10.2015
Другие материалы по этой песне:

Страница создана 03.05.2012
http://primanota.ru/ratt/lovin-you-is-a-dirty-job-chords.htm
Привет, Гость.
Предлагаем пройти революционный курс по гитаре.
Подарок от PrimaNota.Ru, забирай!