PrimaNota.ru - самый крупный в мире бесплатный архив песенных текстов, аккордов, табулатур и нот


Ratt - I Want A Woman - текст песни, таба, видео

Регистрация Запомнить меня
Войти через:  Facebook Google Twitter Vk Yandex Mail.ru

Ratt - I Want A Woman - текст песни, таба, видео

Печатать
Просмотров: 147
I WANT A WOMAN
As recorded by Ratt
(From the 1988 Album REACH FOR THE SKY)
Tablature (Tab) for Guitar
Transcribed by Pedro11Henrique
Words by Stephen Pearcy
Music by Robbin Crosby, Stephen Pearcy, Juan Croucier & Beau Hill
Arranged by Ratt

Gtr I (E A D G B E) - 'Guitar I'

Gtr II (E A D G B E) - 'Guitar II'

Gtr III (E A D G B E) - 'Guitar III'


 Intro
  Moderate Rock Q=130
            B       Bsus4     B         B5   BsBsA
 4/4
  Gtr I
  H    Q  E E   +E  E Q  Q.   E   E E E  E E E E E
|-------------|-----------------|------------------|
|-------------|-----------------|------------------|
|-----------8-|-(8)-9-9--9----8-|---9---11---9-8-6-|
|-----------9-|-(9)-9-9--9----9-|-9-9-9--9-9-9-9-7-|
|-------------|-----------------|------------------|
|-------------|-----------------|------------------|


      Asus4                       B         Bsus4               B
  Gtr I
  +E  E Q  Q.   E   E E E E E Q    E    +E   E  Q   Q.            E
|-----------------|------------------|-------------------------------|
|-----------------|------------------|-------------------------------|
|-(6)-7-7--7----7S|=x--------------8-|--(8)--9--9---9-------------8--|
|-(7)-7-7--7----7-|----------------9-|--(9)--9--9---9-------------9--|
|-----------------|-----2-5----------|-------------------------------|
|-----------------|---3-----3-0------|-------------------------------|
|
| Gtr II
|  W                H       Q   E  E    +E   E  Q   Q.    a      +E
|-----------------|------------------|-------------------------------|
|-----------------|------------------|-------------------------------|
|-----------------|---------------11-|-(11)-13-13--13----13b15==(13)-|
|-----------------|---------------13-|-(13)-14-14--14----14b16==(14)-|
|-----------------|------------------|-------------------------------|
|-----------------|------------------|-------------------------------|
                    H       Q   E  E    +E   E  Q   Q.    a      +E


              B5      BsuB4 A         Asus4
    E    E  E  E   E   E  E  E    +E   E  Q   Q.    E
|------------------------------|----------------------|
|------------------------------|----------------------|
|--------9----11-------9--8--6-|--(6)--7--7---7-----7S|
|---9----9--9--9---9---9--9--7-|--(7)--7--7---7-----7-|
|------------------------------|----------------------|
|------------------------------|----------------------|
|
|  +E   +Q     E  +E   E  E  E    +E   E  Q   Q.    E
|------------------------------|----------------------|
|------------------------------|----------------------|
|-(13)r(13)---11-(11)-13-11--9-|--(9)-11-11--11----11S|
|-(14)r(14)---13-(13)-14-13-11-|-(11)-12-12--12----12-|
|------------------------------|----------------------|
|------------------------------|----------------------|
   +E   +Q     E  +E   E  E  E    +E   E  Q   Q.    E


    N.C.                     B5
  E  E  E  E  E  Q             E
|---------------------------------||
|---------------------------------||
|-x-------------------------------||
|------------------------------4--||
|-------2--5-------------------2--||
|----3--------3--0----------------||
|
| E  E  E  E  E  E  E  a      +E
|------------------14-14b16==(14)-||
|------------14-16-17-17b19==(17)-||
|-x----------14-15----------------||
|------12-11----------------------||
|---14-14-17----------------------||
|---15----------------------------||
  E  E  E  E  E  E  E  a      +E


 Verse 1
            D5C#5 B5  D5               N.C.
   +E  E Q  E E E E     E   E Q  E E E E
|-------------------|--------------------|
|-------------------|--------------------|
|-------------------|--------------------|
|--(4)-4-4--7-6---4-|---7---7-7--7-7-7---|
|--(2)-2-2--5-4---2-|---5---5-5--5-5-5---|
|-------------------|------------------0-|
|
|  +W                  +W
|-(14)r=============|=(14)\--------------|
|-(17)r=============|=(17)\--------------|
|-------------------|--------------------|
|-------------------|--------------------|
|-------------------|--------------------|
|-------------------|--------------------|


                                    B5
  +E  E E E E Q  E   +E  E E E E Q  E
|------------------|-------------------|
|------------------|-------------------|
|------------------|-------------------|
|------------------|----------------4--|
|-------2-5------5-|-(5)---2-5------2--|
|-(0)-3-----3-0----|-----3-----3-0-----|
|
|  W                  W
|------------------|-------------------|
|------------------|-------------------|
|------------------|-------------------|
|------------------|-------------------|
|------------------|-------------------|
|------------------|-------------------|


           D5C#5 B5  Bsus4     B  E5      N.C.                          B5
  +E  E Q  E E E E   E E E E E Q  E   +E  E E E E Q  E   +E  E E E E Q  E
|------------------|----------------|------------------|-------------------|
|------------------|----------------|------------------|-------------------|
|------------------|-9-9-9-9-9-8--9-|-(9)--------------|-------------------|
|-(4)-4-4--7-6---4-|-9-9-9-9-9-9--9-|-(9)--------------|----------------4--|
|-(2)-2-2--5-4---2-|--------------7-|-(7)---2-5------5-|-(5)---2-5------2--|
|------------------|--------------0-|-(0)-3-----3-0----|-----3-----3-0-----|


                D5                 A5                         E      A5/BB5
  +E  E Q  E Q  E   +E  E Q  E E E E   +E  E Q  E E E E   +E  E Q  E E E E
|-----------------|------------------|------------------|-------------------|
|-----------------|------------------|------------------|-------------------|
|-----------------|------------------|------------------|-----1-1--1-2------|
|-(4)-4-4--4-4--7-|-(7)-7-7--7-----2-|-(2)-2-2--2-------|-----2-2--2-2---4--|
|-(2)-2-2--2-2--5-|-(5)-5-5--5-4-2-0-|-(0)-0-0--0-------|-----2-2--2-2---2--|
|-----------------|------------------|------------3-2-0-|-(0)---------------|


                D5                 A5                                    B
  +E  E Q  E Q  E   +E  E Q  E E E E   +Q.   E +E  E E E   E E E E E E E E
|-----------------|------------------|-------------------|------------------||
|-----------------|------------------|-------------------|------------------||
|-----------------|------------------|-------------------|---------------8--||
|-(4)-4-4--4-4--7-|-(7)-7-7--7-----2-|-(2)---2-(2)-2---2-|---2-2-2-2-2-x-9--||
|-(2)-2-2--2-2--5-|-(5)-5-5--5-4-2-0-|-(0)---0-(0)-0---0-|---0-0-0-0-0-x----||
|-----------------|------------------|-------------------|------------------||


 Chorus
      Bsus4     B     BsusB5   BsBsA       Asus4           N.C.       B
  +E  E Q  Q.   E   E E E  E E E E E   +E  E Q  Q.   E   E E E E E Q  E
|-----------------|------------------|-----------------|-----------------|
|-----------------|------------------|-----------------|-----------------|
|-(8)-9-9--9----8-|---9---11---9-8-6-|-(6)-7-7--7----7S|=x------------8--|
|-(9)-9-9--9----9-|-9-9-9--9-9-9-9-7-|-(7)-7-7--7----7-|--------------9--|
|-----------------|------------------|-----------------|-----2-5---------|
|-----------------|------------------|-----------------|---3-----3-0-----|


      Bsus4     B     BsusB5   BsBsA       Asus4           N.C.       B5
  +E  E Q  Q.   E   E E E  E E E E E   +E  E Q  Q.   E   E E E E E Q  E
|-----------------|------------------|-----------------|-----------------||
|-----------------|------------------|-----------------|-----------------||
|-(8)-9-9--9----8-|---9---11---9-8-6-|-(6)-7-7--7----7S|=x---------------||
|-(9)-9-9--9----9-|-9-9-9--9-9-9-9-7-|-(7)-7-7--7----7-|--------------4--||
|-----------------|------------------|-----------------|-----2-5------2--||
|-----------------|------------------|-----------------|---3-----3-0-----||


 Verse 2
           D5C#5 B5  D5           N.C.                                  B5
  +E  E Q  E E E E   E E Q  E E E E   +E  E E E E Q  E   +E  E E E E Q  E
|------------------|----------------|------------------|-------------------|
|------------------|----------------|------------------|-------------------|
|------------------|----------------|------------------|-------------------|
|-(4)-4-4--7-6---4-|-7-7-7--7-7-7---|------------------|----------------4--|
|-(2)-2-2--5-4---2-|-5-5-5--5-5-5---|-------2-5------5-|-(5)---2-5------2--|
|------------------|--------------0-|-(0)-3-----3-0----|-----3-----3-0-----|


           D5C#5 B5  Bsus4     B  E5             N.C.
  Gtr I
  +E  E Q  E E E E   E E E E E Q  E   +E           E  E E   E   Q   E
|------------------|----------------|------------------------------------|
|------------------|----------------|------------------------------------|
|------------------|-9-9-9-9-9-8--9-|-(9)--------------------------------|
|-(4)-4-4--7-6---4-|-9-9-9-9-9-9--9-|-(9)--------------------------------|
|-(2)-2-2--5-4---2-|--------------7-|-(7)-------------2-5-----------5----|
|------------------|--------------0-|-(0)----------3--------3---0--------|
|
| Gtr III
|  W                 W                 E   a      +Q.      +Q.      S  S
|------------------|----------------|------------------------------12-15-|
|------------------|----------------|-----15b17==(15)-----(15)r----------|
|------------------|----------------|------------------------------------|
|------------------|----------------|------------------------------------|
|------------------|----------------|------------------------------------|
|------------------|----------------|------------------------------------|


                                             B5
  +E      E     E     E     E     Q           E
|-------------------------------------------------|
|-------------------------------------------------|
|-------------------------------------------------|
|---------------------------------------------4---|
|-(5)-----------2-----5-----------------------2---|
|---------3-----------------3-----0---------------|
|
|  S   S  S  S  S  S  S  S  S  S  S  S  S  S  E
|-12-----12---------------------------------------|
|-----15----15-12-15-12----12---------------------|
|-----------------------14----15-14-12----12-14---|
|--------------------------------------14---------|
|-------------------------------------------------|
|-------------------------------------------------|


                 D5                 A5                         E      A5/BB5
  +E   E Q  E Q  E   +E  E Q  E E E E   +E  E Q  E E E E   +E  E Q  E E E E
|------------------|------------------|------------------|-------------------|
|------------------|------------------|------------------|-------------------|
|------------------|------------------|------------------|-----1-1--1-2------|
|-(4)--4-4--4-4--7-|-(7)-7-7--7-----2-|-(2)-2-2--2-------|-----2-2--2-2---4--|
|-(2)--2-2--2-2--5-|-(5)-5-5--5-4-2-0-|-(0)-0-0--0-------|-----2-2--2-2---2--|
|------------------|------------------|------------3-2-0-|-(0)---------------|
|
|  ~~~~
|  H..           E    W                  W                  W
|------------------|------------------|------------------|-------------------|
|-12\--------------|------------------|------------------|-------------------|
|------------------|------------------|------------------|-------------------|
|------------------|------------------|------------------|-------------------|
|------------------|------------------|------------------|-------------------|
|------------------|------------------|------------------|-------------------|


                D5                 A5                                    B
  +E  E Q  E Q  E   +E  E Q  E E E E   +Q.   E +E  E E E   E E E E E E E E
|-----------------|------------------|-------------------|------------------||
|-----------------|------------------|-------------------|------------------||
|-----------------|------------------|-------------------|---------------8--||
|-(4)-4-4--4-4--7-|-(7)-7-7--7-----2-|-(2)---2-(2)-2---2-|---2-2-2-2-2-x-9--||
|-(2)-2-2--2-2--5-|-(5)-5-5--5-4-2-0-|-(0)---0-(0)-0---0-|---0-0-0-0-0-x----||
|-----------------|------------------|-------------------|------------------||


 Chorus
  $
      Bsus4     B     BsusB5   BsBsA       Asus4           N.C.       B
  +E  E Q  Q.   E   E E E  E E E E E   +E  E Q  Q.   E   E E E E E Q  E
|-----------------|------------------|-----------------|-----------------|
|-----------------|------------------|-----------------|-----------------|
|-(8)-9-9--9----8-|---9---11---9-8-6-|-(6)-7-7--7----7S|=x------------8--|
|-(9)-9-9--9----9-|-9-9-9--9-9-9-9-7-|-(7)-7-7--7----7-|--------------9--|
|-----------------|------------------|-----------------|-----2-5---------|
|-----------------|------------------|-----------------|---3-----3-0-----|


      Bsus4     B     BsusB5   BsBsA       Asus4           N.C.       B
  +E  E Q  Q.   E   E E E  E E E E E   +E  E Q  Q.   E   E E E E E Q  E
|-----------------|------------------|-----------------|-----------------|
|-----------------|------------------|-----------------|-----------------|
|-(8)-9-9--9----8-|---9---11---9-8-6-|-(6)-7-7--7----7S|=x------------8--|
|-(9)-9-9--9----9-|-9-9-9--9-9-9-9-7-|-(7)-7-7--7----7-|--------------9--|
|-----------------|------------------|-----------------|-----2-5---------|
|-----------------|------------------|-----------------|---3-----3-0-----|


      Bsus4     B     BsusB5   BsBsA       Asus4           N.C.       B
  +E  E Q  Q.   E   E E E  E E E E E   +E  E Q  Q.   E   E E E E E Q  E
|-----------------|------------------|-----------------|-----------------|
|-----------------|------------------|-----------------|-----------------|
|-(8)-9-9--9----8-|---9---11---9-8-6-|-(6)-7-7--7----7S|=x------------8--|
|-(9)-9-9--9----9-|-9-9-9--9-9-9-9-7-|-(7)-7-7--7----7-|--------------9--|
|-----------------|------------------|-----------------|-----2-5---------|
|-----------------|------------------|-----------------|---3-----3-0-----|


                              To Coda
      Bsus4     B     BsusB5   BsBsA       Asus4
  +E  E Q  Q.   E   E E E  E E E E E   +E  E Q  Q.   E
|-----------------|------------------|------------------||
|-----------------|------------------|------------------||
|-(8)-9-9--9----8-|---9---11---9-8-6-|-(6)-7-7--7----7S=||
|-(9)-9-9--9----9-|-9-9-9--9-9-9-9-7-|-(7)-7-7--7----7--||
|-----------------|------------------|------------------||
|-----------------|------------------|------------------||


 Interlude
  N.C.        Asus4     N.C.      Asus4     N.C.      Asus4     N.C.      Asus4
  E E E E E E E E   +E  E E E E E E E   +E  E E E E E E E   +E  E E E E E E E
|-----------------|-------------------|-------------------|--------------------|
|-----------------|-------------------|-------------------|--------------------|
|-x-----------7-7-|-(7)-----------7-7-|-(7)-----------7-7-|-(7)-----------7-7--|
|-------------7-7-|-(7)-----------7-7-|-(7)-----------7-7-|-(7)-----------7-7--|
|-----2-5---------|-------2-5---------|-------2-5---------|-------2-5----------|
|---3-----3-0-----|-----3-----3-0-----|-----3-----3-0-----|-----3-----3-0------|


      N.C.      Asus4     N.C.      Asus4
  Gtrs I, II
  +E  E E E E E E E   +E  E E E E E E E
|-------------------|-------------------|
|-------------------|-------------------|
|-(7)-----------7-7-|-(7)-----------7-7-|
|-(7)-----------7-7-|-(7)-----------7-7-|
|-------2-5---------|-------2-5---------|
|-----3-----3-0-----|-----3-----3-0-----|
|
| Gtr III
|  W                   W
|-------------------|-------------------|
|-------------------|-------------------|
|-------------------|-------------------|
|-------------------|-------------------|
|-------------------|-------------------|
|-------------------|-------------------|


      N.C.      Asus4     N.C.               F#5
  +E  E E E E E E E   +E  E E E E Q            E
|-------------------|-----------------------------||
|-------------------|-----------------------------||
|-(7)-----------7-7-|-(7)-------------------------||
|-(7)-----------7-7-|-(7)-------------------------||
|-------2-5---------|-------2-5----------------4--||
|-----3-----3-0-----|-----3-----3-0------------2--||
|
|  W                   H        Q   E  a       E
|-------------------|-----------------------------||
|-------------------|-------------------------17--||
|-------------------|-----------------16b18==(16)-||
|-------------------|-----------------------------||
|-------------------|-----------------------------||
|-------------------|-----------------------------||


 Guitar Solo - Warren
              F#5                                             B5
   +Q.    E E Q  E    Q.                E   E    E   E          E
|------------------|-----------------------------------------------|
|------------------|-----------------------------------------------|
|------------------|-----------------------------------------------|
|------------------|--------------------------------------------4--|
|--(4)----4-4-4--4-|--4-----------------4---4----4---4----------2--|
|--(2)----2-0h2--2-|--2-----------------2---0h===2---0-------------|
|
|  +W                 E   E  a       Q     +E   +E   E  a      +E
|------------------|-17--------------------------------------------|
|-(17)-------------|-----17---------17----(17)---------16b18==(16)-|
|-(16)r------------|--------16b18==(16)---(16)r(16)-14-------------|
|------------------|-----------------------------------------------|
|------------------|-----------------------------------------------|
|------------------|-----------------------------------------------|


                                                                                   F#5
   +Q.    E  E         Q             E            Q.   E          E    E   E         E
|---------------------------------------|------------------------------------------------|
|---------------------------------------|------------------------------------------------|
|---------------------------------------|------------------------------------------------|
|--(4)----4--4---------4-------------4--|---------4----4----------4----------------------|
|--(2)----2--0h========2-------------2--|---------2----2----------2p===0-------------4---|
|---------------------------------------|----------------------------------2---------2---|
|
|  +H        e  a     +e   e  a     +e     a     +H       a      +E   +E   E  a     +E
|---------------------------------------|------------------------------------------------|
|-(16)r-----16-16b18-(16)-16-16b18-(16)-|-16b18-(16)-----16b18==(16)r(16)-14-17b19-(17)--|
|---------------------------------------|------------------------------------------------|
|---------------------------------------|------------------------------------------------|
|---------------------------------------|------------------------------------------------|
|---------------------------------------|------------------------------------------------|


                                      F#5
  Gtr I
   +Q.                E            E   Q                          E
|--------------------------------------------------------------------|
|--------------------------------------------------------------------|
|--------------------------------------------------------------------|
|--------------------------------------------------------------------|
|--(4)----------------4------------4---4--------------------------4--|
|--(2)----------------2------------0h==2--------------------------2--|
|
| Gtr III
|  +E.   S  a     +E.    S  a     +E   S  a     +S   S  S  a     +E
|-------14--------------14------------14---------------14------------|
|-(17)r----17b19-(17)------17b19-(17)----17b19-(17)-17----17b19-(17)-|
|--------------------------------------------------------------------|
|--------------------------------------------------------------------|
|--------------------------------------------------------------------|
|--------------------------------------------------------------------|


                                                                   B5
   Q.                           E               E       E     E     E
|------------------------------------------------------------------------|
|------------------------------------------------------------------------|
|------------------------------------------------------------------------|
|-------------------------------------------------------------------4----|
|--4----------------------------4---------------4-------4-----4-----2----|
|--2----------------------------2---------------0h======2-----0----------|
|
|  S   a     +E   S  a     +E   S  a      +S   +S    S  S  S  S  S  S  S
|-14-------------14------------14-------------------14-17-14----14-------|
|-----17b19-(17)----17b19-(17)----17b19==(17)-(17)r----------17----17-14-|
|------------------------------------------------------------------------|
|------------------------------------------------------------------------|
|------------------------------------------------------------------------|
|------------------------------------------------------------------------|


  Gtr I
  +Q.                 E        E Q   E
|--------------------------------------|
|--------------------------------------|
|--------------------------------------|
|-(4)-----------------4--------4-4---4-|
|-(2)-----------------2--------0h2---2-|
|--------------------------------------|
|
| Gtr III
|                     |--3--|
|  S   S  S  S  S  S  S  S  S  Q.    E
|--------------------------------------|
|-17--14----14----14----------------17-|
|--------17----16----14h16p14-16-------|
|--------------------------------------|
|--------------------------------------|
|--------------------------------------|
|
| Gtr II
|  W
|--------------------------------------|
|--------------------------------------|
|--------------------------------------|
|--------------------------------------|
|--------------------------------------|
|--------------------------------------|


                              F#5                          A5
           Q.   E E E   E      E     Q.      E  E  E  E      E
|--------------------------------|------------------------------|
|--------------------------------|------------------------------|
|--------------------------------|------------------------------|
|----------4----4-4--------------|---------------------------2--|
|----------2----2-2p0----------4-|---4-------4--4--4--4------0--|
|-----------------------2------2-|---2-------2--2--2--0---------|
|
|  a      +H.          +S   S  E    +H          H
|-19b21==(19)r========(19)p17----|------------------------------|
|-----------------------------19-|-(19)\------------------------|
|--------------------------------|------------------------------|
|--------------------------------|------------------------------|
|--------------------------------|------------------------------|
|--------------------------------|------------------------------|
|
|          H      Q     E      E     Q     Q    E  E  E  a  +E
|--------------------------------|------------------------------|
|--------------------------------|----------------14-16-16-(16)-|
|-----------------------------14-|--14----13---14-14-16-16-(16)-|
|-----------------------------16-|--16----14---16---------------|
|--------------------------------|------------------------------|
|--------------------------------|------------------------------|
           H      Q     E      E     Q     Q    E  E  E  a  +E


                               E              B5
  Gtr I
  +Q    Q   E  E  E  E    +Q    Q     E  E  E  E   +Q    E E  E  E  E  E
|----------------------|-------------------------|-----------------------|
|----------------------|-------------------------|-----------------------|
|----------------------|--------1-----1h=2p=1----|-----------------------|
|-(2)---2---2----------|--------2-----2--------4-|-(4)---4----4--4--4--4-|
|-(0)---0---0----------|--------2-----2--------2-|-(2)---2----2--2--2--2-|
|--------------4--2--0-|--(0)--------------------|-----------------------|
|
| Gtr II
|  Q    Q   E  E  E  E    +Q    E  E  E  E  E  E    Q    Q    E  E  E  E
|----------------------|-------------------------|-----------------------|
|-16---16--14-------16-|-(16)--14-14-------------|-----------------------|
|-16---16--14-13-14-16-|-(16)--14-14-13-14-13-14-|-14---13---11--9-------|
|----------------16----|----------------16-14-16-|-16---14---------11-11-|
|----------------------|-------------------------|-----------14-12--9--9-|
|----------------------|-------------------------|-----------------------|
   Q    Q   E  E  E  E    +Q    E  E  E  E  E  E    Q    Q    E  E  E  E


                  D5                   A5               Gsus4
  Gtr I
   Q   E E E  E E  E   +Q   E E  E E E  E   +Q    E E E Q  E
|--------------------|--------------------|------------------|
|--------------------|--------------------|------------------|
|--------------------|--------------------|-------------5--5-|
|--4---4---4--4-4--7-|-(7)--7-----------2-|-(2)---2-----5--5-|
|--2---2---2--2-2--5-|-(5)--5----0------0-|-(0)---0----------|
|--------------------|-------------3-0----|------------------|
|
| Gtr II
|  Q   Q   E  E E  E    Q   Q    E E E  E    H..           E
|--------------------|--------------------|------------------|
|--------------------|--------------------|----------------8-|
|----------9----9-11-|-11---9-----------9-|--9---------------|
|-11--11---8-11-9-11-|-11---9---11-9-7-10-|-10-------------9-|
|--9--12-----12------|----------12-9-7----|------------------|
|--------------------|--------------------|------------------|
   Q   Q   E  E E  E    Q   Q    E E E  E    H..           E


  +H      +E  Q  E   +H     +E  Q  E
|------------------|-----------------|
|------------------|-----------------|
|-(5)-----(5)-5--5-|-(5)----(5)-5--5-|
|-(5)-----(5)-5--5-|-(5)----(5)-5--5-|
|------------------|-----------------|
|------------------|-----------------|
|
| +H..           E   +W
|----------------8-|-(8)-------------|
|-(8)------------8-|-(8)-------------|
|------------------|-----------------|
|-(9)--------------|-----------------|
|------------------|-----------------|
|------------------|-----------------|
  +H..           E   +W


                                      D.S. al Coda
                                                  B
  +H..                                             E
|-----------------------------------------------------||
|-----------------------------------------------------||
|-(5)----------------------------------------------8--||
|-(5)----------------------------------------------9--||
|-----------------------------------------------------||
|-----------------------------------------------------||
|
|            /0.5____|    /0.5____|    /0.5____|
|  Q.     E  S      +S   +S      +S   +S      +S   E
|--8--------------------------------------------------||
|--8--------12-----(12)-(12)----(12)-(12)----(12)-12--||
|--------14-------------------------------------------||
|-----------------------------------------------------||
|-----------------------------------------------------||
|-----------------------------------------------------||
   H         H


 Outro
  &
      Asus4               N.C.
   E  E Q  Q.    E     E  E E E  E  Q   E
|-------------------|---------------------|
|-------------------|---------------------|
|-(6)-7-7--7-----7\-|--x------------------|
|-(7)-7-7--7-----7\-|---------------------|
|-------------------|-------2-5---------5-|
|-------------------|-----3------3--0-----|
|
| Gtr II
|  H       Q   E E    +H        +E  E E E
|-------------------|---------------------|
|----------------8--|-(8)-------(8)s7---8-|
|-------------------|-----------------7---|
|-------------------|---------------------|
|-------------------|---------------------|
|-------------------|---------------------|


  +E  E E E  E  Q   E   +E  E E E  E  Q   E
|---------------------|----------------------|
|---------------------|----------------------|
|---------------------|----------------------|
|---------------------|----------------------|
|-(5)---2-5---------5-|-(5)---2-5---------5--|
|-----3------3--0-----|-----3------3--0------|
|
| +H        +E  E E E   +H        +E  E E E
|---------------------|----------------------|
|-(8)-------(8)s7---8-|-(8)-------(8)s7---8--|
|-----------------7---|-----------------7----|
|---------------------|----------------------|
|---------------------|----------------------|
|---------------------|----------------------|


  N.C.
  +E  E E E  E  Q   E   +E  E   E E E.    S +E  E
|---------------------|---------------------------|
|---------------------|---------------------------|
|---------------------|---------------------------|
|---------------------|---------------------------|
|-(5)---2-5---------5-|-(5)-----2-5-------------5-|
|-----3------3--0-----|-----3-------3-----0-(0)---|
|
| +E  E E E +E  E E E    Q    a Q   S S S S  E  E
|---------------------|---------------------------|
|-(8)s7---8-(8)s7---xs|=12----7s9-----------------|
|-------8---------7---|-------------9s7---9s=7--7-|
|---------------------|-----------------9---------|
|---------------------|---------------------------|
|---------------------|---------------------------|


  +E  E E E    E S S +E  E   +E  E    E E  E S  S +E  E
|--------------------------|-----------------------------|
|--------------------------|-----------------------------|
|--------------------------|-----------------------------|
|--------------------------|-----------------------------|
|-(5)---2-5--------------5-|-(5)------2-5-------------5--|
|-----3--------3-0-0-(0)---|-----3---------3-0--0-(0)----|
|
| +Q    E E a  E S S +E  E   +Q    a  Q    E S  S  E  E
|--------------------------|-----------------------------|
|--------------------------|-----------------------------|
|-(7)---7s9-9s12-9-9-(9)-9-|-(9)---9s14---13s9-13s=9--9--|
|--------------------------|-----------------------------|
|--------------------------|-----------------------------|
|--------------------------|-----------------------------|


  N.C.
  +E  E E E    E S S +E  E   +E  E E E  E  S  S +E   E
|--------------------------|---------------------------|
|--------------------------|---------------------------|
|--------------------------|---------------------------|
|--------------------------|---------------------------|
|-(5)---2-5--------------5-|-(5)---2-5---------------5-|
|-----3--------3-0-0-(0)---|-----3------3--0--0-(0)----|
|
| +Q    E E a  E S S  E  E   +Q    E E  E  S  S  E   E
|--------------------------|---------------------------|
|--------------------------|-----------10s12-10s12--10-|
|-(9)---7s9-9s12-9-9-----7-|-(7)---7s9-----------------|
|--------------------------|---------------------------|
|--------------------------|---------------------------|
|--------------------------|---------------------------|


  +E  E E  E  E  S  S  +E      E
|--------------------------------|
|--------------------------------|
|--------------------------------|
|--------------------------------|
|-(5)---2--5-------------------5-|
|-----3-------3--0--0--(0)-------|
|
|  Q.      E  E  S  S  +S   S  E
|--------------------------------|
|-15------14-15-14s15-(15)-14s15-|
|--------------------------------|
|--------------------------------|
|--------------------------------|
|--------------------------------|


  N.C.
   +E  E E  E  E  S  S  +E      E    +E   E  E  E  E     S  S  +E      E
|---------------------------------|--------------------------------------*|
|---------------------------------|--------------------------------------*|
|---------------------------------|--------------------------------------*|
|---------------------------------|--------------------------------------*|
|--(5)---2--5-------------------5-|--(5)-----2--5----------------------5-*|
|------3-------3--0--0--(0)-------|-------3--------3-----0--0--(0)-------*|
|
|  +Q.      E  E  S  S  +E   a  E    +E   E  E  E  S  S  S  S  +E   a  E
|---------------------------------|--------------------------------------*|
|-(15)-----14-15-14s12-(12)-15s17-|-(17)-15-14-15-14s15s14-12-(12)-15s17-*|
|---------------------------------|--------------------------------------*|
|---------------------------------|--------------------------------------*|
|---------------------------------|--------------------------------------*|
|---------------------------------|--------------------------------------*|


Duration Legend
---------------
W - whole; H - half; Q - quarter; E - 8th; S - 16th; T - 32nd; X - 64th; a - acciaccatura
+ - note tied to previous; . - note dotted; .. - note double dotted
Uncapitalized letters represent notes that are staccato (1/2 duration)
Irregular groupings are notated above the duration line
Duration letters will always appear directly above the note/fret number it represents the
duration for.  Duration letters with no fret number below them represent rests.  Multi-
bar rests are notated in the form Wxn, where n is the number of bars to rest for.  Low
melody durations appear below the staff

Tablature Legend
----------------
 h   - hammer-on
 p   - pull-off
 b   - bend
 pb  - pre-bend
 r   - bend release (if no number after the r, then release immediately)
 /\  - slide into or out of (from/to "nowhere")
 s   - legato slide
 S   - shift slide
 - natural harmonic
[n]  - artificial harmonic
n(n) - tapped harmonic
 ~   - vibrato
 tr  - trill
 T   - tap
 TP  - trem. picking
 PM  - palm muting
\n/  - tremolo bar dip; n = amount to dip
 \n  - tremolo bar down
 n/  - tremolo bar up
/n\  - tremolo bar inverted dip
 =   - hold bend; also acts as connecting device for hammers/pulls
 <> - volume swell (louder/softer)
 x   - on rhythm slash represents muted slash
 o   - on rhythm slash represents single note slash

Misc Legend
-----------
 |  - bar
||  - double bar
||o - repeat start
o|| - repeat end
*|  - double bar (ending)
 :  - bar (freetime)
 $  - Segno
 &  - Coda
Tempo markers -  = BPM(8/16=s8/s16), where s8 = swing 8ths, s16 = swing 16ths
Добавлено: 26.09.2015
Другие материалы по этой песне:

Страница создана 24.03.2012
http://primanota.ru/ratt/i-want-a-woman-chords.htm
Привет, Гость.
Предлагаем пройти революционный курс по гитаре.
Подарок от PrimaNota.Ru, забирай!