PrimaNota.ru - самый крупный в мире бесплатный архив песенных текстов, аккордов, табулатур и нот


Ratt - Between The Eyes - текст песни, таба, видео

Регистрация Запомнить меня
Войти через:  Facebook Google Twitter Vk Yandex Mail.ru

Ratt - Between The Eyes - текст песни, таба, видео

Печатать
Просмотров: 125
Уроки эстрадного вокала в Санкт-Петербурге
BETWEEN THE EYES
As recorded by Ratt
(From the 1985 Album INVASION OF YOUR PRIVACY)
Tablature (Tab) for Guitar
Transcribed by Pedro11Henrique
Words by Stephen Pearcy
Music by Warren DeMartini
Arranged by Ratt

Gtr I (Eb Ab Db Gb Bb Eb) - 'Guitar I - Warren DeMartini'

Gtr II (Eb Ab Db Gb Bb Eb) - 'Guitar II - Robbin Crosby'

Gtr III (Eb Ab Db Gb Bb Eb) - 'Guitar III - Warren DeMartini'

Gtr IV (Eb Ab Db Gb Bb Eb) - 'Acoustic'


 Intro
  Moderate Rock Q=100
              B5/A          B5      B5/A          B5      B5/A
 4/4
  Gtrs I, II
  H    Q  E S S   +E  E Q   E E E S S   +E  E Q   E E E S S
|---------------|---------------------|---------------------|
|---------------|---------------------|---------------------|
|-------------4-|-(4)-------4---4---4-|-(4)-------4---4---4-|
|-------------4-|-(4)-------4---4---4-|-(4)-------4---4---4-|
|-------------0-|-(0)-2-2-2-2-2-2-2-0-|-(0)-2-2-2-2-2-2-2-0-|
|---------------|---------------------|---------------------|
  H    Q  E S S   +E  E E E E E E S S   +E  E E E E E E S S


            B5      B5/A          B5      B5/A
  +E  E Q   E E E S S   +E  E Q   E E E S S
|---------------------|---------------------||
|---------------------|---------------------||
|-(4)-------4---4---4-|-(4)-------4---4---4-||
|-(4)-------4---4---4-|-(4)-------4---4---4-||
|-(0)-2-2-2-2-2-2-2-0-|-(0)-2-2-2-2-2-2-2-0-||
|---------------------|---------------------||
  +E  E E E E E E S S   +E  E E E E E E S S


 Verse 1
            B5        A5/B          B5 B5/A5      G5             F5/G
  +E  E Q   E E E.    S   +H        Q  E. S   +E  E Q   Q   E.   S
|-----------------------|-------------------|---------------3-------|
|-----------------------|-------------------|---------------3----6--|
|-(4)-------4---------2-|-(2)-------4--4--2-|-(2)----------------5--|
|-(4)-------4---------2-|-(2)-------4--4--2-|-(2)-5-----------------|
|-(0)-2-2-2-2-2-----0-2-|-(2)-2-2-2-2--0--0-|-(0)-5-----------------|
|---------------0h2-----|-------------------|-----3-3-3-3-3-3--3-3--|
  +E  E E E E E S S S S   +E  E E E Q  E. S   +E  E E E E E E  S S


                        B5/A          B5        A5/B          B5 B5/A5
  +H        S S E S S S S   +E  E Q   E E E.    S   +H        Q  E. S
|-----------3h5p3---------|-----------------------|-------------------|
|-(6)-------3h5p3---------|-----------------------|-------------------|
|-(5)-------------7h9p7-4-|-(4)-------4---------2-|-(2)-------4--4--2-|
|-----------------7h9p7-4-|-(4)-------4---------2-|-(2)-------4--4--2-|
|-----------------------0-|-(0)-2-2-2-2-2-----0-2-|-(2)-2-2-2-2--0--0-|
|-(3)-3-3-3---------------|---------------0h2-----|-------------------|
  +E  E E E Q     E.    S   +E  E E E E E S S S S   +E  E E E Q  E. S


      G5              E5               B5/A
  +E  E Q   Q   E.    S   +H.      +S  S S S
|-----------------------|--------------------||
|-----------------------|--------------------||
|-(2)-----------------9-|-(9)------(9)-4---4-||
|-(2)-5---------------9-|-(9)------(9)-4---4-||
|-(0)-5---------------7-|-(7)------(7)-0---0-||
|-----3-3-3-3-3-3p0-0-0-|-(0)------(0)-------||
  +E  E E E E E S S S S   +H.      +S  S S S


 Verse 2
            B5        A5/B          B5 B5/A5      G5             F5/G
  +E  E Q   E E E.    S   +H        Q  E. S   +E  E Q   Q   E.   S
|-----------------------|-------------------|---------------3-------|
|-----------------------|-------------------|---------------3----6--|
|-(4)-------4---------2-|-(2)-------4--4--2-|-(2)----------------5--|
|-(4)-------4---------2-|-(2)-------4--4--2-|-(2)-5-----------------|
|-(0)-2-2-2-2-2-----0-2-|-(2)-2-2-2-2--0--0-|-(0)-5-----------------|
|---------------0h2-----|-------------------|-----3-3-3-3-3-3--3-3--|
  +E  E E E E E S S S S   +E  E E E Q  E. S   +E  E E E E E E  S S


                        B5/A          B5        A5/B          B5 B5/A5
  +H        S S E S S S S   +E  E Q   E E E.    S   +H        Q  E. S
|-----------3h5p3---------|-----------------------|-------------------|
|-(6)-------3h5p3---------|-----------------------|-------------------|
|-(5)-------------7h9p7-4-|-(4)-------4---------2-|-(2)-------4--4--2-|
|-----------------7h9p7-4-|-(4)-------4---------2-|-(2)-------4--4--2-|
|-----------------------0-|-(0)-2-2-2-2-2-----0-2-|-(2)-2-2-2-2--0--0-|
|-(3)-3-3-3---------------|---------------0h2-----|-------------------|
  +E  E E E Q     E.    S   +E  E E E E E S S S S   +E  E E E Q  E. S


      G5              E5               F
                                       Gtr IV
  +E  E Q   Q   E.    S   +H.      +E. S
|-----------------------|----------------||
|-----------------------|----------------||
|-(2)-----------------9-|-(9)------(9)---||
|-(2)-5---------------9-|-(9)------(9)---||
|-(0)-5---------------7-|-(7)------(7)---||
|-----3-3-3-3-3-3p0-0-0-|-(0)------(0)-1-||
  +E  E E E E E S S S S   +H.      +E. S


 Chorus
            G7        F/A           G/B           F             G7        F/A
   E  E E E    E  E E E      E  E E E    E  E  E. S    E  E E E    E  E E E
|-------------------------|-------------------------|-------------------------|
|-------1-----------0-----|-------1------------3----|-------1-----------0-----|
|-------------------------|-------------------------|-------------------------|
|-----3-----------3-------|-----3-----------0-------|-----3-----------3-------|
|-----------------------0-|-(0)-----0-2-(2)---(2)---|-----------------------0-|
|-(1)-----1-3-(3)-----3---|-----------------------1-|-(1)-----1-3-(3)-----3---|
  +Q.     S S +Q.     S S   +Q.     S S +Q    +E. S   +Q.     S S +Q.     S S


            G/B         B5/A          B5      B5/A
                        Gtrs I, II
   E  E E E    E  E  E. S   +E  E Q   E E E S S
|-------------------------|---------------------|
|-------1------------3----|---------------------|
|-----------------0-----4-|-(4)-------4---4---4-|
|-----3-----------------4-|-(4)-------4---4---4-|
|-(0)-----0-2-(2)---(2)-0-|-(0)-2-2-2-2-2-2-2-0-|
|-------------------------|---------------------|
  +Q.     S S +Q    +E. S   +E  E E E E E E S S


            B5      B5/A          B5      B5/A          B5      B5/A
  +E  E Q   E E E S S   +E  E Q   E E E S S   +E  E Q   E E E S S
|---------------------|---------------------|----------------------||
|---------------------|---------------------|----------------------||
|-(4)-------4---4---4-|-(4)-------4---4---4-|-(4)-------4---4---4--||
|-(4)-------4---4---4-|-(4)-------4---4---4-|-(4)-------4---4---4--||
|-(0)-2-2-2-2-2-2-2-0-|-(0)-2-2-2-2-2-2-2-0-|-(0)-2-2-2-2-2-2-2-0--||
|---------------------|---------------------|----------------------||
  +E  E E E E E E S S   +E  E E E E E E S S   +E  E E E E E E S S


 Verse 3
  $
            B5        A5/B          B5 B5/A5      G5             F5/G
  +E  E Q   E E E.    S   +H        Q  E. S   +E  E Q   Q   E.   S
|-----------------------|-------------------|---------------3-------|
|-----------------------|-------------------|---------------3----6--|
|-(4)-------4---------2-|-(2)-------4--4--2-|-(2)----------------5--|
|-(4)-------4---------2-|-(2)-------4--4--2-|-(2)-5-----------------|
|-(0)-2-2-2-2-2-----0-2-|-(2)-2-2-2-2--0--0-|-(0)-5-----------------|
|---------------0h2-----|-------------------|-----3-3-3-3-3-3--3-3--|
  +E  E E E E E S S S S   +E  E E E Q  E. S   +E  E E E E E E  S S


                        B5/A          B5        A5/B          B5 B5/A5
  +H        S S E S S S S   +E  E Q   E E E.    S   +H        Q  E. S
|-----------3h5p3---------|-----------------------|-------------------|
|-(6)-------3h5p3---------|-----------------------|-------------------|
|-(5)-------------7h9p7-4-|-(4)-------4---------2-|-(2)-------4--4--2-|
|-----------------7h9p7-4-|-(4)-------4---------2-|-(2)-------4--4--2-|
|-----------------------0-|-(0)-2-2-2-2-2-----0-2-|-(2)-2-2-2-2--0--0-|
|-(3)-3-3-3---------------|---------------0h2-----|-------------------|
  +E  E E E Q     E.    S   +E  E E E E E S S S S   +E  E E E Q  E. S


      C5              E5
                                       Gtr IV
  +E  E Q   Q   E.    S   +H.      +E. S
|-----------------------|----------------||
|-----------------------|----------------||
|-(2)-5---------------9-|-(9)------(9)---||
|-(2)-5---------------9-|-(9)------(9)---||
|-(0)-3---------------7-|-(7)------(7)---||
|-------3-3-3-3-3p0-0-0-|-(0)------(0)-1-||
  +E  E E E E E S S S S   +H.      +E. S


 Chorus
            G7        F/A             G/B         F             G7        F/A
   E  E E E    E  E E E      E  E E E    E  E  E. S    E  E E E    E  E E E
|-------------------------|-------------------------|-------------------------|
|-------1-----------0-----|-------1------------3----|-------1-----------0-----|
|-------------------------|-------------------------|-------------------------|
|-----3-----------3-------|-----3-----------0-------|-----3-----------3-------|
|-----------------------0-|-(0)-----0-2-(2)---(2)---|-----------------------0-|
|-(1)-----1-3-(3)-----3---|-----------------------1-|-(1)-----1-3-(3)-----3---|
  +Q.     S S +Q.     S S   +Q.     S S +Q    +E. S   +Q.     S S +Q.     S S


            G/B         F             G7        F/A
   E  E E E    E  E  E. S    E  E E E    E  E E E
|-------------------------|-------------------------|
|-------1------------3----|-------1-----------0-----|
|-------------------------|-------------------------|
|-----3-----------0-------|-----3-----------3-------|
|-(0)-----0-2-(2)---(2)---|-----------------------0-|
|-----------------------1-|-(1)-----1-3-(3)-----3---|
  +Q.     S S +Q    +E. S   +Q.     S S +Q.     S S


                                           To Coda
            G/B         F             G7        F/A
   E  E E E    E  E  E. S    E  E E E    E  E E E
|-------------------------|-------------------------|
|-------1------------3----|-------1-----------0-----|
|-------------------------|-------------------------|
|-----3-----------0-------|-----3-----------3-------|
|-(0)-----0-2-(2)---(2)---|-----------------------0-|
|-----------------------1-|-(1)-----1-3-(3)-----3---|
  +Q.     S S +Q    +E. S   +Q.     S S +Q.     S S


            G/B         A5
                        Gtrs I, II
   E  E E E    E  E  E. S   +E  E S S E Q   E E
|-------------------------|-----------------------|
|-------1------------3----|-----------------------|
|-----------------------2-|-(2)-0-0h2-2-2---0-2---|
|-----3-----------0-----2-|-(2)-0-0-2-2-2---0-2---|
|-(0)-----0-2-(2)---(2)-0-|-(0)-0-0---0-0-0-0-0-0-|
|-------------------------|-----------------------|
  +Q.     S S +Q    +E. S   +E  E E   E E E E S S


        A5     G5 F5         F5  E5    D5
  E E S S E Q  E. S   +H      E. S +E  E   +W
|-------------------|--------------------|--------||
|-------------------|--------------------|--------||
|-2-0-0h2-2-2-------|--------10--9-(9)-7-|-(7)----||
|-2-0-0-2-2-2--5--3-|-(3)----10--9-(9)-7-|-(7)----||
|-0-0-0---0-0--5--3-|-(3)-----8--7-(7)-5-|-(5)----||
|--------------3--1-|-(1)----------------|--------||
  E E E   E H


 Guitar Solo
  B5/A     B5        A5/B          B5      A5/B   A5
  Gtrs I, II
  E  E Q   E E E.    S   +H         Q      E.     S
|----------------------|----------------------------|
|----------------------|----------------------------|
|-4--------4---------2-|-(2)--------4------4------2-|
|-4--------4---------2-|-(2)--------4------4------2-|
|-0--2-2-2-2-2-----0-2-|-(2)-2-2-2--2------0------0-|
|--------------0h2-----|----------------------------|
| E  E E E E E S S S S   +E  E E E  Q      E.     S
|
| Gtr III
| H.           E.    S   +H        +E  S S S  S E
|-5--------------------|---------------5---5--5S7S==|
|-7------------5-----4-|-(4)-------(4)---7----------|
|--------------4-----4-|-(4)-------(4)--------------|
|----------------------|----------------------------|
|----------------------|----------------------------|
|----------------------|----------------------------|


      G5                                                         F5/G
  +E  E   Q                 Q                    E.              S
|------------------------------------------------3--------------------|
|------------------------------------------------3---------------6----|
|-(2)------------------------------------------------------------5----|
|-(2)-5---------------------------------------------------------------|
|-(0)-5---------------------------------------------------------------|
|-----3---3----3------------3----------3---------3----------3----3----|
| +E  E   E    E            E          E         E          S    S
|
|  ~~~
|              |----5----|
|  Q     +S  S T  T T  T T  T  T  T T  T T  T T  T  T  T  T T  T T  T
|-10----(10)-9-9h10p9----9-10h12p10p9h10p9----9-----------------------|
|---------------------12-------------------12---12p10h12p10p9---------|
|-------------------------------------------------------------11p9----|
|------------------------------------------------------------------12-|
|---------------------------------------------------------------------|
|---------------------------------------------------------------------|


                                  B5/A
  +H                  S S E S S S  S
|---------------------3h5p3-------------|
|-(6)-----------------3h5p3-------------|
|-(5)-----------------------7h9p7--4----|
|---------------------------7h9p7--4----|
|----------------------------------0----|
|-(3)--------3----3-3-------------------|
| +E         E    E E Q     E.     S
|
|                 ~~
|  S    +S   S S  H         E.     S
|---------------------------------15b17-|
|--9b10r(9)----9-10---------------------|
|-----------12--------------------------|
|---------------------------------------|
|---------------------------------------|
|---------------------------------------|


                 B5                               A5/B
   +E  E Q         E    E         E.              S
|------------------------------------------------------|
|------------------------------------------------------|
|--(4)-------------4------------------------------2----|
|--(4)-------------4------------------------------2----|
|--(0)-2-2--2------2----2--------------------0----2----|
|---------------------------------0h===2---------------|
|  +E  E E  E      E    E         S    S     S    S
|
|           ~~~~~~~~~~
|                       |--3---|  |--------6---------|
|  +Q.      E     +E   +S   S  S  S  S    S  S  S    S
|-(15)-----15b17-(15)-(15)------------------17---------|
|--------------------------19------------19----19------|
|-----------------------------19-16-19--------------19-|
|------------------------------------------------------|
|------------------------------------------------------|
|------------------------------------------------------|


                                       B5                  B5/A A5
  +H                                    Q                    E. S
|-----------------------------------------------------------------|
|-----------------------------------------------------------------|
|-(2)-----------------------------------4--------------------4--2-|
|-(2)-----------------------------------4--------------------4--2-|
|-(2)--------2--------2--------2--------2--------------------0--0-|
|-----------------------------------------------------------------|
| +E         E        E        E        Q                    E. S
|
|  |-------6-------|  |------6-------|  |--3--|  |--3---|
|  S   S  S  S  S  S  S  S  S  S  S  S  S  S  S  S     +E   +Q
|-----------------------------------------------------------------|
|-19-----19S17----17S15----15S14----14S12----12-------------------|
|-----19-------18-------16-------14-------14----14b16-(14)-(14)---|
|-----------------------------------------------------------------|
|-----------------------------------------------------------------|
|-----------------------------------------------------------------|


                                                 D.S. al Coda
       C5                   E5                               B5/A
   +E  E Q   Q      E.      S     +H.                    +Q
|-------------------------------|-------------------------------||
|-------------------------------|-------------------------------||
|--(2)-5--------------------9---|-(9)--------------------(9)----||
|--(2)-5--------------------9---|-(9)--------------------(9)----||
|--(0)-3--------------------7---|-(7)--------------------(7)----||
|--------3-3-3----3-3p0-0---0---|-(0)--------------------(0)----||
|  +E  E E E E    E S S S   S     +H.                    +Q
|
|   ~~~~                                    ~~~~~~
|  +H        S E.   S S T T T T   +E  T T T T +Q   +E  E  E. S
|-------------------------------|-------------------------------||
|--------------6----6---6-------|-----6-------------------------||
|-(14)----------------7---7S5S4-|-(4)---7S5S4-(4)--(4)-------4--||
|-------------------------------|----------------------------4--||
|-------------------------------|----------------------------0--||
|-------------------------------|-------------------------------||


  &
            G/B          F
  Gtr IV
   E  E E S S S S S S E. S
|--------------------------|
|-------1---3---3---3-3----|
|-----------0---0---0-0----|
|-----3--------------------|
|-(0)-----0-2---2---2-2----|
|------------------------1-|
   Q.     S S S S S S E. S


            G7        F/A             G/B         F
   E  E E E    E  E E E      E  E E E    E  E  E. S
|-------------------------|--------------------------|
|-------1-----------0-----|-------1------------3-----|
|-------------------------|--------------------------|
|-----3-----------3-------|-----3-----------0--------|
|-----------------------0-|-(0)-----0-2-(2)---(2)----|
|-(1)-----1-3-(3)-----3---|-----------------------1--|
  +Q.     S S +Q.     S S   +Q.     S S +Q    +E. S


            G7        F/A             G/B          F
   E  E E E    E  E E E      E  E E S S S S S S E. S
|-------------------------|--------------------------|
|-------1-----------0-----|-------1---3---3---3-3----|
|-------------------------|-----------0---0---0-0----|
|-----3-----------3-------|-----3--------------------|
|-----------------------0-|-(0)-----0-2---2---2-2----|
|-(1)-----1-3-(3)-----3---|------------------------1-|
  +Q.     S S +Q.     S S   +Q.     S S S S S S E. S


            G7        F/A             G/B         F
   E  E E E    E  E E E      E  E E E    E  E  E. S
|-------------------------|-------------------------|
|-------1-----------0-----|-------1------------3----|
|-------------------------|-------------------------|
|-----3-----------3-------|-----3-----------0-------|
|-----------------------0-|-(0)-----0-2-(2)---(2)---|
|-(1)-----1-3-(3)-----3---|-----------------------1-|
  +Q.     S S +Q.     S S   +Q.     S S +Q    +E. S


            G7        F/A             G/B          F
   E  E E E    E  E E E      E  E E S S S S S S E. S
|-------------------------|--------------------------|
|-------1-----------0-----|-------1---3---3---3-3----|
|-------------------------|-----------0---0---0-0----|
|-----3-----------3-------|-----3--------------------|
|-----------------------0-|-(0)-----0-2---2---2-2----|
|-(1)-----1-3-(3)-----3---|------------------------1-|
  +Q.     S S +Q.     S S   +Q.     S S S S S S E. S


            G7        F/A             G/B         F             G7
   E  E E E    E  E E E      E  E E E    E  E  E. S    E  E E E    E  E E E
|-------------------------|-------------------------|-------------------------|
|-------1-----------0-----|-------1------------3----|-------1-----------0-----|
|-------------------------|-------------------------|-------------------------|
|-----3-----------3-------|-----3-----------0-------|-----3-----------3-------|
|-----------------------0-|-(0)-----0-2-(2)---(2)---|-----------------------0-|
|-(1)-----1-3-(3)-----3---|-----------------------1-|-(1)-----1-3-(3)-----3---|
  +Q.     S S +Q.     S S   +Q.     S S +Q    +E. S   +Q.     S S +Q.     S S


            G/B          F
   E  E E S S S S S S E. S
|--------------------------|
|-------1---3---3---3-3----|
|-----------0---0---0-0----|
|-----3--------------------|
|-(0)-----0-2---2---2-2----|
|------------------------1-|
  +Q.     S S S S S S E. S


            G7        F/A             G/B         F
   E  E E E    E  E E E      E  E E E    E  E  E. S
|-------------------------|--------------------------|
|-------1-----------0-----|-------1------------3-----|
|-------------------------|--------------------------|
|-----3-----------3-------|-----3-----------0--------|
|-----------------------0-|-(0)-----0-2-(2)---(2)----|
|-(1)-----1-3-(3)-----3---|-----------------------1--|
  +Q.     S S +Q.     S S   +Q.     S S +Q    +E. S


            G7        F/A             G/B          F
   E  E E E    E  E E E      E  E E S S S S S S E. S
|-------------------------|--------------------------||
|-------1-----------0-----|-------1---3---3---3-3----||
|-------------------------|-----------0---0---0-0----||
|-----3-----------3-------|-----3--------------------||
|-----------------------0-|-(0)-----0-2---2---2-2----||
|-(1)-----1-3-(3)-----3---|------------------------1-||
  +Q.     S S +Q.     S S   +Q.     S S S S S S E. S


             G7        F/A             G/B         F
    E  E E E    E  E E E      E  E E E    E  E  E. S  3x
||-------------------------|--------------------------||
||o------1-----------0-----|-------1------------3----o||
||-------------------------|--------------------------||
||-----3-----------3-------|-----3-----------0--------||
||o----------------------0-|-(0)-----0-2-(2)---(2)---o||
||--1------1-3-(3)-----3---|-----------------------1--||
    Q.     S S +Q.     S S   +Q.     S S +Q    +E. S


Duration Legend
---------------
W - whole; H - half; Q - quarter; E - 8th; S - 16th; T - 32nd; X - 64th; a - acciaccatura
+ - note tied to previous; . - note dotted; .. - note double dotted
Uncapitalized letters represent notes that are staccato (1/2 duration)
Irregular groupings are notated above the duration line
Duration letters will always appear directly above the note/fret number it represents the
duration for.  Duration letters with no fret number below them represent rests.  Multi-
bar rests are notated in the form Wxn, where n is the number of bars to rest for.  Low
melody durations appear below the staff

Tablature Legend
----------------
 h   - hammer-on
 p   - pull-off
 b   - bend
 pb  - pre-bend
 r   - bend release (if no number after the r, then release immediately)
 /\  - slide into or out of (from/to "nowhere")
 s   - legato slide
 S   - shift slide
 - natural harmonic
[n]  - artificial harmonic
n(n) - tapped harmonic
 ~   - vibrato
 tr  - trill
 T   - tap
 TP  - trem. picking
 PM  - palm muting
\n/  - tremolo bar dip; n = amount to dip
 \n  - tremolo bar down
 n/  - tremolo bar up
/n\  - tremolo bar inverted dip
 =   - hold bend; also acts as connecting device for hammers/pulls
 <> - volume swell (louder/softer)
 x   - on rhythm slash represents muted slash
 o   - on rhythm slash represents single note slash

Misc Legend
-----------
 |  - bar
||  - double bar
||o - repeat start
o|| - repeat end
*|  - double bar (ending)
 :  - bar (freetime)
 $  - Segno
 &  - Coda
Tempo markers -  = BPM(8/16=s8/s16), where s8 = swing 8ths, s16 = swing 16ths
Добавлено: 26.09.2015
Другие материалы по этой песне:

Страница создана 29.03.2012
http://primanota.ru/ratt/between-the-eyes-chords.htm
Привет, Гость.
Предлагаем пройти революционный курс по гитаре.
Подарок от PrimaNota.Ru, забирай!