PrimaNota.ru - самый крупный в мире бесплатный архив песенных текстов, аккордов, табулатур и нот


Ratt - Give It All - текст песни, таба, видео

Регистрация Запомнить меня
Войти через:  Facebook Google Twitter Vk Yandex Mail.ru

Ratt - Give It All - текст песни, таба, видео

Печатать
Просмотров: 123
GIVE IT ALL
As recorded by Ratt From Invasion Of Your Privacy
Tablature (Tab) for Guitar
Transcribed by Pedro11Henrique


Gtr I (D# G# C# F# A# D#) - 'Gtr. 1'

Gtr II (D# G# C# F# A# D#) - 'Gtr. 2'

Gtr III (D# G# C# F# A# D#) - 'Gtr. 3'


  Q=132
 4/4
  Gtr I
  Q  E E S S E E E   E E Q.   E E E   Q  E E S S E E E   E E Q.   E E E
|------------------|----------------|------------------|-----------------|
|-2--3-------------|-----6----------|-2--3-------------|-----6-----------|
|-2--2-------2---5-|-----5----------|-2--2-------2---5-|-----5-----------|
|-2--4-------2---5-|----------------|-2--4-------2---5-|-----------------|
|-0------3p0---0---|-0-0------------|-0------3p0---0---|-0-0-------------|
|------------------|----------0-3-4-|------------------|----------0-3-4--|


  Gtr III
           |--3--| |-3--|
  Q  Q     S S   S S S +S   Q
|----7b8---7h8p==7h8p7-(7)------|
|--------------------------10---|
|-------------------------------|
|-------------------------------|
|-------------------------------|
|-------------------------------|
|
| Gtr I
| Q  E   E S   S   E        E E
|-------------------------------|
|-2--3--------------------------|
|-2--2-------------2----------5-|
|-2--4-------------2----------5-|
|-0--------3p==0------------0---|
|-------------------------------|


                                ~~
          |-3--|  |-3--|
  Q   Q   S  S S  S S +S  Q     Q.     E  Q     E E
|-----------------------------|-------------------8--|
|-8-----------------------8---|-8-----10-10----------|
|-----9---9h10p9h10p9-(9)-----|----------------------|
|-----------------------------|----------------------|
|-----------------------------|----------------------|
|-----------------------------|----------------------|
|
| E E Q.          E       E E   Q   E  E  S S E E E
|-----------------------------|----------------------|
|-----6-----------------------|-2---3----------------|
|-----5-----------------------|-2---2---------2---5--|
|-----------------------------|-2---4---------2---5--|
|-0-0-------------------------|-0---------3p0---0----|
|-----------------0-------3-4-|----------------------|


                                  ~~~~~~~~
             |-3-|  |-3-| |--3--|
  +E  E Q    S S S  S S S S +S  S E   +Q    Q   H         W
|-(8)-7-8---10p8p7------------------|-------------------|------------------|
|------------------10p8p7---------8-|-(8)---------------|------------------|
|-------------------------9-(9)-----|-------------------|------------------|
|-----------------------------------|-------------------|------------------|
|-----------------------------------|-------------------|------------------|
|-----------------------------------|-------------------|------------------|
|
| Gtrs I, II
|  E  E H.                             E  E E E E E E E   E E E E E E  E E
|-------1---------------------------|-------------------|------------------|
|-------1---------------------------|-------------------|-8-----8-----10---|
|-------2---------------------------|--9------9-----9---|-9-----9------9---|
|-------3---------------------------|--7------7-----7---|-7-----7------7---|
|--0--0-3---------------------------|-----0-0---0-0---0-|---0-0---0-0----0-|
|-------1---------------------------|-------------------|------------------|


  Gtrs I, II
  E E Q  E E E E   +E  S S Q  E E E E   E E E E E E E E   E E E E E E  E E
|----------------|--------------------|-----------------|-------------------|
|----------------|--------------------|-----------------|-8-----8-----10----|
|-9-9-7--------7-|-(7)-----5----------|-9-----9-----9---|-9-----9------9----|
|-7-7-5--------7-|-(7)-----5----------|-7-----7-----7---|-7-----7------7----|
|--------0-0-0---|-----5h7--------3p0-|---0-0---0-0---0-|---0-0---0-0----0--|
|----------------|------------0-3-----|-----------------|-------------------|


  E E Q  E E E E   +E  S S Q  E E E E   E E E E E E E E   E E E E E E  E E
|----------------|--------------------|-----------------|-------------------|
|----------------|--------------------|-----------------|-8-----8-----10----|
|-9-9-7--------7-|-(7)-----5----------|-9-----9-----9---|-9-----9------9----|
|-7-7-5--------7-|-(7)-----5----------|-7-----7-----7---|-7-----7------7----|
|--------0-0-0---|-----5h7--------3p0-|---0-0---0-0---0-|---0-0---0-0----0--|
|----------------|------------0-3-----|-----------------|-------------------|


  E E Q  E E E E   +E  S S Q  E E E E   E E E E E E E E   E E E E E E  E E
|----------------|--------------------|-----------------|-------------------|
|----------------|--------------------|-----------------|-8-----8-----10----|
|-9-9-7--------7-|-(7)-----5----------|-9-----9-----9---|-9-----9------9----|
|-7-7-5--------7-|-(7)-----5----------|-7-----7-----7---|-7-----7------7----|
|--------0-0-0---|-----5h7--------3p0-|---0-0---0-0---0-|---0-0---0-0----0--|
|----------------|------------0-3-----|-----------------|-------------------|


  E E Q  E E E E   +E  S S Q  E E E E   E E Q  E E E E   +E  S S Q  E E E E
|----------------|--------------------|----------------|--------------------|
|----------------|--------------------|----------------|--------------------|
|-9-9-7--------7-|-(7)-----5----------|-9-9-7--------7-|-(7)-----5----------|
|-7-7-5--------7-|-(7)-----5----------|-7-7-5--------7-|-(7)-----5----------|
|--------0-0-0---|-----5h7--------3p0-|--------0-0-0---|-----5h7--------3---|
|----------------|------------0-3-----|----------------|------------0-3---0-|


  Q  E E E Q  E   +E  E E E E E E E   Q  E E E Q  E   +E  E E E E E E E
|---------------|-------------------|---------------|-------------------|
|---------------|-------------------|---------------|-------------------|
|-9--------7--5-|-(5)---------------|-9--------7--5-|-(5)---------------|
|-9--------7--5-|-(5)---------------|-9--------7--5-|-(5)---------------|
|-7--------5--3-|-(3)-3-3-3-3-3-3-3-|-7--------5--3-|-(3)-3-3-3-3-3-3-3-|
|----0-0-0------|-------------------|----0-0-0------|-------------------|


  Q  E E E Q  E   +E  E E E E E E E   Q  E E E Q  E   +E  E E E E E E E
|---------------|-------------------|---------------|-------------------|
|---------------|-------------------|---------------|-------------------|
|-9--------7--5-|-(5)---------------|-9--------7--5-|-(5)-5-5-5-5-5-5-5-|
|-9--------7--5-|-(5)---------------|-9--------7--5-|-(5)-5-5-5-5-5-5-5-|
|-7--------5--3-|-(3)-3-3-3-3-3-3-3-|-7--------5--3-|-(3)-3-3-3-3-3-3-3-|
|----0-0-0------|-------------------|----0-0-0------|-------------------|


  E E E E E E E E   Q  E E S S E E E   E E Q.   E E E   Q  E E S S E E E
|-----------------|------------------|----------------|------------------|
|-----------------|-2--3-------------|-----6----------|-2--3-------------|
|-5-5-5-5-5-------|-2--2-------2---5-|-----5----------|-2--2-------2---5-|
|-5-5-5-5-5-------|-2--4-------2---5-|----------------|-2--4-------2---5-|
|-3-3-3-3-3-------|-0------3p0---0---|-0-0------------|-0------3p0---0---|
|-----------0-3-4-|------------------|----------0-3-4-|------------------|


  E E Q.   E E E   Q  E E S S E E E   E E Q.   E E E   Q  E E S S E E E
|----------------|------------------|----------------|------------------|
|-----6----------|-2--3-------------|-----6----------|-2--3-------------|
|-----5----------|-2--2-------2---5-|-----5----------|-2--2-------2---5-|
|----------------|-2--4-------2---5-|----------------|-2--4-------2---5-|
|-0-0------------|-0------3p0---0---|-0-0------------|-0------3p0---0---|
|----------0-3-4-|------------------|----------0-3-4-|------------------|


  E E H.        E E E E E E E E   E E E E E E  E E   E E Q  E E E E
|-----1-------|-----------------|------------------|----------------|
|-----1-------|-----------------|-8-----8-----10---|----------------|
|-----2-------|-9-----9-----9---|-9-----9------9---|-9-9-7--------7-|
|-----3-------|-7-----7-----7---|-7-----7------7---|-7-7-5--------7-|
|-0-0-3-------|---0-0---0-0---0-|---0-0---0-0----0-|--------0-0-0---|
|-----1-------|-----------------|------------------|----------------|


  +E  S S Q  E E E E   E E E E E E E E   E E E E E E  E E   E E Q  E E E E
|--------------------|-----------------|------------------|-----------------|
|--------------------|-----------------|-8-----8-----10---|-----------------|
|-(7)-----5----------|-9-----9-----9---|-9-----9------9---|-9-9-7--------7--|
|-(7)-----5----------|-7-----7-----7---|-7-----7------7---|-7-7-5--------7--|
|-----5h7--------3p0-|---0-0---0-0---0-|---0-0---0-0----0-|--------0-0-0----|
|------------0-3-----|-----------------|------------------|-----------------|


  +E  S S Q  E E E E   E E E E E E E E   E E E E E E  E E   E E Q  E E E E
|--------------------|-----------------|------------------|-----------------|
|--------------------|-----------------|-8-----8-----10---|-----------------|
|-(7)-----5----------|-9-----9-----9---|-9-----9------9---|-9-9-7--------7--|
|-(7)-----5----------|-7-----7-----7---|-7-----7------7---|-7-7-5--------7--|
|-----5h7--------3p0-|---0-0---0-0---0-|---0-0---0-0----0-|--------0-0-0----|
|------------0-3-----|-----------------|------------------|-----------------|


  +E  S S Q  E E E E   E E E E E E E E   E E E E E E  E E   E E Q  E E E E
|--------------------|-----------------|------------------|-----------------|
|--------------------|-----------------|-8-----8-----10---|-----------------|
|-(7)-----5----------|-9-----9-----9---|-9-----9------9---|-9-9-7--------7--|
|-(7)-----5----------|-7-----7-----7---|-7-----7------7---|-7-7-5--------7--|
|-----5h7--------3p0-|---0-0---0-0---0-|---0-0---0-0----0-|--------0-0-0----|
|------------0-3-----|-----------------|------------------|-----------------|


  +E  S S Q  E E E E   E E Q  E E E E   +E  S S Q  E E E E   Q  E E E Q  E
|--------------------|----------------|--------------------|---------------|
|--------------------|----------------|--------------------|---------------|
|-(7)-----5----------|-9-9-7--------7-|-(7)-----5----------|-9--------7--5-|
|-(7)-----5----------|-7-7-5--------7-|-(7)-----5----------|-9--------7--5-|
|-----5h7--------3p0-|--------0-0-0---|-----5h7--------3---|-7--------5--3-|
|------------0-3-----|----------------|------------0-3---0-|----0-0-0------|


  +E  E E E E E E E   Q  E E E Q  E   +E  E E E E E E E   Q  E E E Q  E
|-------------------|---------------|-------------------|---------------|
|-------------------|---------------|-------------------|---------------|
|-(5)---------------|-9--------7--5-|-(5)---------------|-9--------7--5-|
|-(5)---------------|-9--------7--5-|-(5)---------------|-9--------7--5-|
|-(3)-3-3-3-3-3-3-3-|-7--------5--3-|-(3)-3-3-3-3-3-3-3-|-7--------5--3-|
|-------------------|----0-0-0------|-------------------|----0-0-0------|


  +E  E E E E E E E   Q  E E E Q  E   +E  E E E E E E E   E E E E E E Q
|-------------------|---------------|-------------------|----------------|
|-------------------|---------------|-------------------|----------------|
|-(5)---------------|-9--------7--5-|-(5)-5-5-5-5-5-5-5-|-7-7-7-7-7-5-5--|
|-(5)---------------|-9--------7--5-|-(5)-5-5-5-5-5-5-5-|-7-7-7-7-7-5-5--|
|-(3)-3-3-3-3-3-3-3-|-7--------5--3-|-(3)-3-3-3-3-3-3-3-|-5-5-5-5-5-3-3--|
|-------------------|----0-0-0------|-------------------|----------------|


  Gtr III
         ~~~~~~~~~~~~~~~~~~~~~~~~
   E     Q.      +H          +Q.      Q      Q.
|-------------------------|-----------------------|
|-12b13-12------(12)------|-(12)-----13b15--13----|
|-------------------------|-----------------------|
|-------------------------|-----------------------|
|-------------------------|-----------------------|
|-------------------------|-----------------------|
|
| Gtr I
|  E     E  E Q      Q  E     E  E E  Q      Q.
|-------------------------|-----------------------|
|-------------------------|-----------------------|
|-------------------------|-----------------------|
|--3----------3-----------|---3-------3------5----|
|--3----------3-----------|---3-------3------5----|
|--1--------1-1-----------|---1----1--1------3----|


                                                 ~~~~~~~~~~
   |--3--|
   S  S  S  E  +Q.    S  S Q     +Q    S S S S S E.    +Q
|------------------------------|----------------------------|
|-12h13p12s10-(10)------10s8---|-(8)---5h8------------------|
|---------------------9--------|-----------7h9p7s5-----(5)--|
|------------------------------|----------------------------|
|------------------------------|----------------------------|
|------------------------------|----------------------------|
|
|  E        E   E  Q  Q      E    E  E E   Q        Q.
|------------------------------|----------------------------|
|------------------------------|----------------------------|
|------------------------------|----------------------------|
|--3---------------3-----------|--3--------3--------5-------|
|--3---------------3-----------|--3--------3--------5-------|
|--1------------1--1-----------|--1----1---1--------3-------|


  E  Q.        +H
|------------------------|
|---15b17r====(15)-------|
|------------------------|
|------------------------|
|------------------------|
|------------------------|
|
| E  E    E E   E  E E E
|------------------------|
|------------------------|
|------------------------|
|-7---------7--------7---|
|-7---------7--------7---|
|-5--5----5-5---5--5-5-5-|


          |--3--|  |--3--|              |--3--|  |--3--|  |--3--|
   +Q     S  S  S  S  S  S  T  T  T  T  S  S  S  S  S  S  S  S  S
|--------------------------12-------------------------------------|
|-(15)---13h15p13p12h13h15----15p13h15p13p12h13p12----12----------|
|--------------------------------------------------14----14p12----|
|--------------------------------------------------------------14-|
|-----------------------------------------------------------------|
|-----------------------------------------------------------------|
|
|   E  E  E        E        E           E        Q
|-----------------------------------------------------------------|
|-----------------------------------------------------------------|
|---------------------------------------4--------5----------------|
|---7--------------7--------------------4--------5----------------|
|---7--------------7--------------------2--------3----------------|
|---5--5--5--------5--------5-------------------------------------|


   |--3--|  |--3--|  |--3---|
   S  S  S  S  S  S  S  S  +S   S  S  S  S  Q.
|----------------------------------------------------|
|----------------------------------------------------|
|-14h16p14h16p14h16p14h16-(16)-------------12b14r====|
|------------------------------12p10h12p10-----------|
|----------------------------------------------------|
|----------------------------------------------------|
|
|  E        E        E          E     E     E    E E
|----------------------------------------------------|
|----------------------------------------------------|
|----------------------------------------------------|
|--7----------------------------7----------------7---|
|--7----------------------------7----------------7---|
|--5--------5--------5----------5-----5-----5----5-5-|


                                  ~~~~~
   +E   S  S  T  T  E       S     Q       E S  S        +H         +Q.      E
|----------------------------------------------------|----------------------------|
|---------------------------------------------13b15==|=(13)-------(13)r----15b17==|
|-(12)-----------------------------------14----------|----------------------------|
|------12p10h12p10-12b13---12b14-12b14---------------|----------------------------|
|----------------------------------------------------|----------------------------|
|----------------------------------------------------|----------------------------|
|
|   E   E     E          E        E    E  E E            E  E E Q       Q   E
|----------------------------------------------------|----------------------------|
|----------------------------------------------------|----------------------------|
|----------------------------------------------------|----------------------------|
|---7--------------------7---------------------------|---3------3-----------------|
|---7--------------------7---------------------------|---3------3-----------------|
|---5---5-----5----------5--------5----5--5-5--------|---1----1-1-----------------|


                     ~~
                           |--3--|  |--3--|
   +E    E  E  S  S  Q     S  S  S  S  S  S
|----------------------------12----------12-|
|-(15)r-15-13-13h15p13----15----15p13h15----|
|-------------------------------------------|
|-------------------------------------------|
|-------------------------------------------|
|-------------------------------------------|
|
|   E    E  E  Q       Q.
|-------------------------------------------|
|-------------------------------------------|
|-------------------------------------------|
|---3----------3-------5--------------------|
|---3----------3-------5--------------------|
|---1-------1--1-------3--------------------|


   |--3--|              |--3--|  |--3--|   |--3---|  |--3--|  |--3--|  |--3--|
   S  S  S  T  T  T  T  S  S  S  S  S  S  +S   S  S  S  S  S  S  S  S  S  S  S
|-13p12----12------------------------------------------------------------------|
|-------15----15p13h15-13-------15p13---------13----12-------------------------|
|-------------------------14p12-------14-(14)----14----14p12h14p12----12-------|
|------------------------------------------------------------------15----14-15-|
|------------------------------------------------------------------------------|
|------------------------------------------------------------------------------|
|
|  E        E           E        Q                   Q                 E
|------------------------------------------------------------------------------|
|------------------------------------------------------------------------------|
|------------------------------------------------------------------------------|
|--3-----------------------------3---------------------------------------------|
|--3-----------------------------3---------------------------------------------|
|--1--------------------1--------1---------------------------------------------|


                     ~~
   |--3--|  |--3--|
   S  S  S  S  S  S  H        Q
|-------------------------------------|
|-------------------------------------|
|-------------------------------------|
|-14p12h14p12----12-14-------13b14r===|
|-------------15----------------------|
|-------------------------------------|
|
|  E        E        E Q  Q.
|-------------------------------------|
|-------------------------------------|
|-------------------------------------|
|--3-------------------3--5-----------|
|--3-------------------3--5-----------|
|--1-----------------1-1--3-----------|


          |---3---|  |---3---|  |---3---|
   +Q     E  E    E  E  E    E  E  E    E
|-----------------------------------------|
|-----------------------------------------|
|-------------------12------12-14-12---14-|
|-(13)---14-12---14----14-----------------|
|-----------------------------------------|
|-----------------------------------------|
|
|   E  E  E    E     E    E     E    E
|-----------------------------------------|
|-----------------------------------------|
|-----------------------------------------|
|---7----------7----------------7---------|
|---7----------7----------------7---------|
|---5--5--5----5-----5----5-----5----5----|


   |---3---|
   E  E    E  T  +T   T  T  Q.        Q
|--------------------17----20b22-----20b24===|
|-13------13-16-(16)----17-------------------|
|----14--------------------------------------|
|--------------------------------------------|
|--------------------------------------------|
|--------------------------------------------|
|
|  E    E     E             E    E E  Q
|--------------------------------------------|
|--------------------------------------------|
|----------------------------------4--5------|
|--7------------------------7------4--5------|
|--7------------------------7------2--3------|
|--5----5-----5-------------5----5-----------|


                      |--3--|  |--3--|  |--3--|  |--3--|
   +Q      E     +E   S  S  S  S  S  S  S  S  S  S  S  S
|-(20)r---20b22r(20)-20p17-------20p17-17----------17----|
|--------------------------20p17----------20p17-------20-|
|-----------------------------------------------19-------|
|--------------------------------------------------------|
|--------------------------------------------------------|
|--------------------------------------------------------|
|
|   E   E  E      E   E        E        E        E
|--------------------------------------------------------|
|--------------------------------------------------------|
|--------------------------------------------------------|
|---7-------------7---------------------7----------------|
|---7-------------7---------------------7----------------|
|---5---5--5------5---5--------5--------5--------5-------|


               |--3--|  |--3--|  |--3---|
   T  T  T  T  S  S  S  S  S  S  S  S  +S   Q       Q
|----------------------------------------------------------|
|-17----20p17h20p17----17----------------------------------|
|----19-------------20----20p17----17-(17)-17b19---17b21---|
|-------------------------------19-------------------------|
|----------------------------------------------------------|
|----------------------------------------------------------|
|
|  E           E        E        E          E.   S  Q
|----------------------------------------------------------|
|----------------------------------------------------------|
|------------------------------------------------5--5------|
|--7-----------------------------7---------------5--5------|
|--7-----------------------------7---------------3--3------|
|--5-----------5--------5--------5----------5--------------|


  Gtrs I, II
  E E Q  E E E E   +E  S S Q  E E E E   E E Q  E E E E   +E  S S Q  E E E E
|----------------|--------------------|----------------|--------------------|
|----------------|--------------------|----------------|--------------------|
|-9-9-7--------7-|-(7)-----5----------|-9-9-7--------7-|-(7)-----5----------|
|-7-7-5--------7-|-(7)-----5----------|-7-7-5--------7-|-(7)-----5----------|
|--------0-0-0---|-----5h7--------3p0-|--------0-0-0---|-----5h7--------3p0-|
|----------------|------------0-3-----|----------------|------------0-3-----|


  E E Q  E E E E   +E  S S Q  E E E E   E E Q  E E E E   +E  S S Q  E E E E
|----------------|--------------------|----------------|--------------------|
|----------------|--------------------|----------------|--------------------|
|-9-9-7--------7-|-(7)-----5----------|-9-9-7--------7-|-(7)-----5----------|
|-7-7-5--------7-|-(7)-----5----------|-7-7-5--------7-|-(7)-----5----------|
|--------0-0-0---|-----5h7--------3p0-|--------0-0-0---|-----5h7--------3p0-|
|----------------|------------0-3-----|----------------|------------0-3-----|


  Q  E E S S E E E   E E Q.   E E E   Q  E E S S E E E   E E Q.   E E E
|------------------|----------------|------------------|----------------|
|-2--3-------------|-----6----------|-2--3-------------|-----6----------|
|-2--2-------2---5-|-----5----------|-2--2-------2---5-|-----5----------|
|-2--4-------2---5-|----------------|-2--4-------2---5-|----------------|
|-0------3p0---0---|-0-0------------|-0------3p0---0---|-0-0------------|
|------------------|----------0-3-4-|------------------|----------0-3-4-|


  Q  E E S S E E E   E E Q.   E E E   Q  E E S S E E E   E E H.
|------------------|----------------|------------------|-----1-----|
|-2--3-------------|-----6----------|-2--3-------------|-----1-----|
|-2--2-------2---5-|-----5----------|-2--2-------2---5-|-----2-----|
|-2--4-------2---5-|----------------|-2--4-------2---5-|-----3-----|
|-0------3p0---0---|-0-0------------|-0------3p0---0---|-0-0-3-----|
|------------------|----------0-3-4-|------------------|-----1-----|


  +H     +E  E E E   Q  Q  H
|-(1)----(1)-------|------------*|
|-(1)----(1)-------|------------*|
|-(2)----(2)-------|------------*|
|-(3)----(3)---5-6-|-7----------*|
|-(3)----(3)---5-6-|-7----------*|
|-(1)----(1)-0-3-4-|-5----------*|


Duration Legend
---------------
W - whole; H - half; Q - quarter; E - 8th; S - 16th; T - 32nd; X - 64th; a - acciaccatura
+ - note tied to previous; . - note dotted; .. - note double dotted
Uncapitalized letters represent notes that are staccato (1/2 duration)
Irregular groupings are notated above the duration line
Duration letters will always appear directly above the note/fret number it represents the
duration for.  Duration letters with no fret number below them represent rests.  Multi-
bar rests are notated in the form Wxn, where n is the number of bars to rest for.  Low
melody durations appear below the staff

Tablature Legend
----------------
 h   - hammer-on
 p   - pull-off
 b   - bend
 pb  - pre-bend
 r   - bend release (if no number after the r, then release immediately)
 /\  - slide into or out of (from/to "nowhere")
 s   - legato slide
 S   - shift slide
 - natural harmonic
[n]  - artificial harmonic
n(n) - tapped harmonic
 ~   - vibrato
 tr  - trill
 T   - tap
 TP  - trem. picking
 PM  - palm muting
\n/  - tremolo bar dip; n = amount to dip
 \n  - tremolo bar down
 n/  - tremolo bar up
/n\  - tremolo bar inverted dip
 =   - hold bend; also acts as connecting device for hammers/pulls
 <> - volume swell (louder/softer)
 x   - on rhythm slash represents muted slash
 o   - on rhythm slash represents single note slash

Misc Legend
-----------
 |  - bar
||  - double bar
||o - repeat start
o|| - repeat end
*|  - double bar (ending)
 :  - bar (freetime)
 $  - Segno
 &  - Coda
Tempo markers -  = BPM(8/16=s8/s16), where s8 = swing 8ths, s16 = swing 16ths
Добавлено: 26.10.2015
Другие материалы по этой песне:

Страница создана 25.02.2012
http://primanota.ru/ratt/give-it-all-chords.htm
Привет, Гость.
Предлагаем пройти революционный курс по гитаре.
Подарок от PrimaNota.Ru, забирай!