PrimaNota.ru - самый крупный в мире бесплатный архив песенных текстов, аккордов, табулатур и нот


Prince - Housequake - текст песни, бас-таба, видео

Регистрация Запомнить меня
Войти через:  Facebook Google Twitter Vk Yandex Mail.ru

Prince - Housequake - текст песни, бас-таба, видео

Печатать
Просмотров: 81
Уроки эстрадного вокала в Санкт-Петербурге
Авторы музыки: Prince
Авторы текста: Prince
                                    Housequake
                                      Prince

Bass                                                              Prince

As played by Prince

Intro

8 Bars Rest

    (If you know how to party say)
    Oh yeah
||------------------|-----------------|-----------------|------------------||
||o-----------------|-----------------|-----------------|-----------------o||
||o-------0-1---1-0-|(0)--------------|-------0-1---1-0-|(0)1-------------o||
||----1-4-----------|-----------------|---1-4-----------|------------------||
    E E E E Q   E.S   E E Q   H         E E E E Q   E.S   E E

                      In your funky town                                 x4
||------------------|-----------------|-----------------|------------------||
||o-----------------|-----------------|-----------------|-----------------o||
||o-------0-1---1-0-|(0)--------------|-------0-1---1-0-|(0)1-------------o||
||----1-4-----------|-----------------|---1-4-----------|------------------||
    E E E E Q   E.S   E E Q   H         E E E E Q   E.S   E E

  Bullshit!
|---8-------------|-----------------|-----------------|-----------------|
|-----------------|-----------------|-----------------|-----------------|
|-------0-1---1-0-|(0)--------------|-------0-1---1-0-|(0)1-------------|
|-----------------|-----------------|---1-4-----------|-----------------|
  E E E E Q   E.S   E E Q   H         E E E E Q   E.S   E E Q   H

                                                          Green eggs and
|-----------------|-----------------|-----------------|-----------------|
|-----------------|-----------------|-----------------|-----------------|
|-------0-1---1-0-|(0)--------------|-------0-1---1-0-|(0)1-------4-5-6-|
|---1-4-----------|-----------------|---1-4-----------|-----------------|
  E E E E Q   E.S   E E Q   H         E E E E Q   E.S   E E Q  Q  S E S

  Ham
|-----------------|-----------------|-----------------|-----------------|
|-----6-3---------|-----------------|-----------------|-----------------|
|---------6-3-----|-----------------|-------0-1---1-0-|(0)1-------------|
|-------------5-6-|-5---6-5\--------|---1-4-----------|-----------------|
  Q.  E S S S S E   E E E E Q   Q     E E E E Q   E.S   E E Q   H

                                      Kickdrum is the fault                House
|-----------------|-----------------|-----------------|---------13-13-12-12-10-|
|-----------------|-----------------|-----------------|------------------------|
|-------0-1---1-0-|(0)--------------|-------0-1---1-0-|(0)1--------------------|
|---1-4-----------|-----------------|---1-4-----------|------------------------|
  E E E E Q   E.S   E E Q   H         E E E E Q   E.S   E E Q   S  E  E  E  S

  Quake
|-----------------|-----------------|-----------------|-----------------|
|-----------------|-----------------|-----------------|-----------------|
|-------0-1---1-0-|(0)--------------|-------0-1---1-0-|(0)1-------------|
|---1-4-----------|-----------------|---1-4-----------|-----------------|
  E E E E Q   E.S   E E Q   H         E E E E Q   E.S   E E Q   H

                                                        Rock this mother down, 
                                                        come on
|-----------------|-----------------|-----------------|-----------------|
|-----------------|-----------------|-----------------|-------------0-1-|
|-------0-1---1-0-|(0)--------------|-------0-1---1-0-|(0)1-------3-----|
|---1-4-----------|-----------------|---1-4-----------|-----------------|
  E E E E Q   E.S   E E Q   H         E E E E Q   E.S   E E Q   E E E E

|-------------------|-----------------|-----------------|-----------------|
|-3-1-0---0---0-----|-----------------|-----------------|-----------------|
|-------3---3---1---|-----------------|-------0-1---1-0-|(0)1-------------|
|-------------------|-----------4-1-1-|---1-4-----------|-----------------|
  E E E E E S S Q     H       E E.S E   E E E E Q   E.S   E E Q   H

|-----------------|-----------------|-----------------|--------------10--|
|-----------------|-----------------|-----------------|---6-7-8-10-8---8-|
|-------0-1---1-0-|(0)--------------|-8-6-6-5-6-6-----|------------------|
|---1-4-----------|-----------------|-------------6---|------------------|
  E E E E Q   E.S   E E Q   H         E.E E S E E Q     E E E E E  E E E

  Do the twist
|-10--------------|-----------------|-----------------|-----------------|
|-----------------|----------3/10\3-|-----------------|-----------------|
|-----------------|-----------------|-------0-1---1-0-|(0)1-------------|
|-----------------|--------1--------|---1-4-----------|-----------------|
  Q   Q   H         H    E E S S  E   E E E E Q   E.S   E E Q   H

|-----------------|-----------------|-----------------|-----------------|
|-----------------|-----------------|-----------------|-----------------|
|-------0-1---1-0-|(0)1-------------|-------0-1---1-0-|(0)0-1-1-2-2-3-3-|
|---1-4-----------|-----------------|---1-4-----------|-----------------|
  E E E E Q   E.S   E E Q   H         E E E E Q   E.S   E E E E E E E E

                    Shake your body...
|-----------------|-----------------|-----------------|-----------------|
|-----------------|---------3-6-3---|-----------------|-----------------|
|-------0-1---1-0-|(0)1-----------6-|-------0-1---1-0-|(0)--------------|
|---1-4-----------|-----------------|---1-4-----------|-----------------|
  E E E E Q   E.S   E E Q.  S E.S E   E E E E Q   E.S   E E Q   H

  Quake             Quake
|-----------------|-----------------|-----------------|-----------------|
|-----------------|---------3-6-3---|-----------------|-----------------|
|-------0-1---1-0-|(0)1-----------6-|-------0-1---1-0-|(0)--------------|
|---1-4-----------|-----------------|---1-4-----------|-----------------|
  E E E E Q   E.S   E E Q.  S E.S E   E E E E Q   E.S   E E Q   H

                                Housequake
|-----------------|-----------------|-----------------|-----------------|
|-----------------|-------------1---|-3-3-------------|-----------------|
|-------0-1---1-0-|(0)1-------------|-----6-5-3---6-5-|(5)--------------|
|---1-4-----------|-----------------|-----------------|-----------1/3\1-|
  E E E E Q   E.S   E E Q   Q   Q     E E E E Q   E.S   E E Q   E.E S E

|-----------------|-----------------|-----------------|---------8-------|
|-----------------|-----------------|-----------------|-----------------|
|-------0-1---1-0-|(0)1-------------|-------0-1---1-0-|(0)--------------|
|---1-4-----------|-----------------|---1-4-----------|-----------------|
  E E E E Q   E.S   E E Q   H         E E E E Q   E.S   E E Q   E.S Q

                                                  If you can't rocksteady...
|-----------------|-----------------|-----------------|-----------------|
|-----------------|-----------------|-----------------|-----------------|
|-------0-1---1-0-|(0)1-------------|-------0-1---1-0-|(0)--------------|
|---1-4-----------|-----------------|---1-4-----------|-----------------|
  E E E E Q   E.S   E E Q   H         E E E E Q   E.S   E E Q   H

  (Shut up)
  Already
|-----------------|-----------------|-----------------|-------------------|
|-----------------|-----------------|-----------------|---------3-6-3-5-3-|
|-------0-1---1-0-|(0)1-------------|-------0-1---1-0-|(0)1---------------|
|---1-4-----------|-----------------|---1-4-----------|-------------------|
  E E E E Q   E.S   E E Q   H         E E E E Q   E.S   E E Q E.S S S S S

|-----------------|-----------------|
|-----------------|-----------------|
|-------0-1---1-0-|(0)1-2---3---4-5-|
|---1-4-----------|-----------------|
  E E E E Q   E.S   E E Q   Q   E E   

  Housequake (my lord)
|-13-13-12-12-10-------|---------10---10-|-----------------|-----------------|
|----------------------|-----------------|-----------------|-----------------|
|----------------------|-----------------|-------0-1---1-0-|(0)1-------------|
|----------------------|-----------------|---1-4-----------|-----------------|
  S  E  E  E  S  H       H     E E  E E    E E E E Q   E.S   E E Q   H

                                                                 Shockalocka
|-13-13-12-12-10-------|-----------------|-----------------|-----------------|
|----------------------|-3---------------|-----------------|-----------------|
|----------------------|---5-3-----------|-------0-1---1-0-|(0)1-------------|
|----------------------|-------6\----1-4-|---1-4-----------|-----------------|
  S  E  E  E  S  H       E S S E E Q E E   E E E E Q   E.S   E E Q   H

  Boom!
|-----------------|-----------------|-----------------|-----------------|
|-----------------|-----------------|-----------------|-----------------|
|-------0-1---1-0-|(0)1-------------|-------0-1---1-0-|(0)--2---3---4---|
|---1-4-----------|-----------------|---1-4-----------|-----------------|
  E E E E Q   E.S   E E Q   H         E E E E Q   E.S   E E Q   Q   Q

|-----------------|-----------------|-----------------|-------------------|
|-----------------|-----------------|-----------------|-----------3-6-3---|
|-------0-1---1-0-|(0)1-------------|-------0-1---1-0-|(0)--------------6-|
|---1-4-----------|-----------------|---1-4-----------|-------------------|
  E E E E Q   E.S   E E Q   H         E E E E Q   E.S   E E Q   E S E S E

|-----------------|-----------------|-----------------|-----------------|
|-----------------|-----------------|-----------------|-----------------|
|-------0-1---1-0-|(0)1-------------|-------0-1---1-0-|(0)--------------|
|---1-4-----------|-----------------|---1-4-----------|-----------------|
  E E E E Q   E.S   E E Q   H         E E E E Q   E.S   E E Q   H

|-----------------|-----------------|-----------------|-----------------|
|-----------------|-----------x---x-|-----------------|-----------1-2-3-|
|-------0-1---1-0-|(0)1-------------|-------0-1---1-0-|(0)--------------|
|---1-4-----------|-----------------|---1-4-----------|-----------------|
  E E E E Q   E.S   E E Q   E E E E   E E E E Q   E.S   E E Q Q S S S S
 
                                      Everybody shut up and listen to the band
|-----------------|-----------------|-----------------|-----------------|
|-----------------|-----------------|-----------------|-----------------|
|-------0-1---1-0-|(0)--------------|-----------------|-----------------|
|---1-4-----------|-----------------|-----------------|-----------------|
  E E E E Q   E.S   E E Q   H         W                 W

|-----------------|-----------------|-----------------||
|-----------------|----------3/10\3-|-----------------||
|-----------------|-----------------|-----------------||
|-----------------|-----------------|-1---------------||
  W                 H    E S E S  E   Q   Q   H    

Key to rhythm notations:

W - Whole Note/Semi-Brieve
H - Half Note/Minim
Q - Quarter Note/Crotchet       Q. - Dotted Quarter Note
E - Eight Note/Quaver           E. - Dotted Eight Note
S - Sixteenth Note/Semi-Quaver  S. - Dotted Sixteenth Note
Добавлено: 19.03.2016
Другие материалы по этой песне:

Страница создана 06.03.2012
http://primanota.ru/prince/housequake-chords.htm
Привет, Гость.
Предлагаем пройти революционный курс по гитаре.
Подарок от PrimaNota.Ru, забирай!