PrimaNota.ru - самый крупный в мире бесплатный архив песенных текстов, аккордов, табулатур и нот


Prince - I Wonder u - текст песни, бас-таба, видео

Регистрация Запомнить меня
Войти через:  Facebook Google Twitter Vk Yandex Mail.ru

Prince - I Wonder u - текст песни, бас-таба, видео

Печатать
Просмотров: 112
Уроки эстрадного вокала в Санкт-Петербурге
                                    I Wonder U
                                      Prince

Bass                                                              Prince 


As played by Prince

In 2/2

Intro

|-----------------|-----------------|-----------------|----/11--x-11----|
|-----------------|-----------------|-----------------|-----------------|
|-----------------|-----------------|-----------------|-----------------|
|-----------------|-----------------|-----------------|-----------------|
  W                 W                 W                 Q   Q   E E Q

|-----------------|-----------------|-----------------|-----------------|
|---------4---4-5-|-7-8-7-4-4-------|---------4---4-5-|-7-8-------------|
|-4---6-7---------|-------------4---|-4---6-7---------|-----------------|
|-----------------|-----------------|-----------------|-----------------|
  Q   E E Q   E E   E E E E Q   Q     Q   E E Q   E E   E E H.

|-----------------|-----------------|-----------------|-----------------|
|---------4---4-5-|-7-8-4---4-------|---------4---4-5-|-8---------------|
|-4---6-7---------|-------------4---|-4---6-7---------|-----------------|
|-----------------|-----------------|-----------------|-----------------|
  Q   E E Q   E E   E E Q   Q   Q     Q   E E Q   E E   E E H.

Verse

|-----------------|-----------------|-----------------|-----------------|
|---------4---4---|-7-8-4---4-------|---------4---4---|-8---------------|
|-4---6-7---------|-------------4---|-4---6-7---------|-----------------|
|-----------------|-----------------|-----------------|-----------------|
  Q   E E Q   Q     E E Q   Q   Q     Q   E E Q   Q     E E H.

|-----------------|-----------------|-----------------|-----------------|
|---------4---4---|-8---4---4-------|---------4---4---|-7-8-------------|
|-4---7-----------|-------------4---|-4---7-----------|-----------------|
|-----------------|-----------------|-----------------|-----------------|
  Q   Q   Q   Q     Q   Q   Q   Q     Q   Q   Q   Q     E E H.

|-----------------|-----------------|-----------------|-----------------|
|---------4---4---|-7-8-4-4-4-------|---------4---4---|-7-8-------------|
|-4---6-7---------|-------------4---|-4---6-7---------|-----------------|
|-----------------|-----------------|-----------------|-----------------|
  Q   E E Q   Q     E E E E Q   Q     Q   E E Q   Q     E E H.

|-----------------|-----------------|-----------------|-----------------|
|---------4---4---|-7-8-4-4-4-------|---------4---4---|-8---------------|
|-4---7-----------|-------------4---|-4---6-7---------|-----------------|
|-----------------|-----------------|-----------------|-----------------|
  Q   Q   Q   Q     E E E E Q   Q     Q   E E Q   Q     E E H.

|-----------------|-----------------|-----------------|-----------------|
|---------4---4---|-7-8-4---4-------|---------4---4---|-7-8-------------|
|-4---6-7---------|-----------------|-4---6-7---------|-----------------|
|-----------------|-----------------|-----------------|-----------------|
  Q   E E Q   Q     E E Q   Q   Q     Q   E E Q   Q     E E H.

|-----------------|-----------------|-----------------|-----------------|
|---------4---4---|-7---4---4-------|---------4---4---|-7-8-------------|
|-4---6-7---------|-------------4---|-4---7-----------|-----------------|
|-----------------|-----------------|-----------------|-----------------|
  Q   E E Q   Q     Q   Q   Q   Q     Q   E E Q   Q     E E H.

|-----------------|-----------------|-----------------|-----------------|
|---------4---4---|-7-8-4---4-------|---------4---4---|-7-8-------------|
|-4---6-7---------|-------------4---|-4---6-7---------|-----------------|
|-----------------|-----------------|-----------------|-----------------|
  Q   E E Q   Q     E E Q   Q   Q     Q   E E Q   Q     E E H.

|-----------------|-----------------|-----------------|-----------------|
|---------4---4---|-7-8-4---4-------|---------4---4---|-7-8-------------|
|-4---6-7---------|-------------4---|-4---6-7---------|-----------------|
|-----------------|-----------------|-----------------|-----------------|
  Q   E E Q   Q     E E Q   Q   Q     Q   E E Q   Q     E E H.

|-----------------|-----------------|-----------------|-----------------|
|---------4---4---|-7-8-4---4-------|---------4---4---|-7-8-------------|
|-4---7-----------|-------------6---|-4---6-7---------|-----------------|
|-----------------|-----------------|-----------------|-----------------|
  Q   Q   Q   Q     E E Q   Q   Q     Q   E E Q   Q     E E H.

|-----------------|-----------------|-----------------|-----------------|
|---------4-----6-|(6)--------------|-----------------|-----------------|
|-4---7-----------|-----------------|-----------------|-----------------|
|-----------------|-----------------|-----------------|-----------------|
  Q   Q   Q   E E   Q   Q   H         W                 W

|---------13-11-10----|----11---------------|-------11----------|-----------------|
|-11---------------11-|-13----13-11-10------|-11-13----10-9-----|-----------------|
|---------------------|-----------------11--|---------------11--|-8-7-4---4-------|
|---------------------|---------------------|-------------------|-----------------|
  Q   Q   E  E  E  E    E  E  E  E  Q   Q     E  E  Q  E  E Q     E E E E Q   Q

|-----------------|-----------------|-----------------|-----------------|
|---------4---4---|-7-8-4---4-------|-----------------|-----------------|
|-4---6-7---------|-------------7---|-7-8-4-------x---|---------1-------|
|-----------------|-----------------|-----------------|-2---2-4-----2---|
  Q   E E Q   Q     E E Q   Q   Q     Q   Q   Q   Q     Q   E E Q   Q

Outro

|-----------------|-----------------|-----------------|-----------------|
|-----------------|-----------------|-----------------|-----------------|
|-----------------|-4---------------|(4)------4/6\----|-4---------------|
|-0-------0-------|-----------------|-----------------|-----------------|
  Q   Q   H         W                 H       E E Q     W

|-----------------|-----------------|-----------------|------------<7>--|
|-----------------|-----------------|-----------------|-----------------|
|-----------------|-----------------|-----------------|-----------------|
|-0---------------|(0)--------------|-0---------------|(0)--------------|
  W                 W                 W                 H.          Q

|<7>--------------|<7>--------------|-----------------|-----------------||
|-----------------|-----------------|-----------------|-----------------||
|-----------------|-----------------|-----------------|-----------------||
|-----------------|-----------------|-0---------------|(0)--------------||
  W                 W                 W                 W



Key to rhythm notations:

W - Whole Note/Semi-Brieve
H - Half Note/Minim
Q - Quarter Note/Crotchet       Q. - Dotted Quarter Note
E - Eight Note/Quaver           E. - Dotted Eight Note
S - Sixteenth Note/Semi-Quaver  S. - Dotted Sixteenth Note
Добавлено: 19.03.2016
Другие материалы по этой песне:

Страница создана 21.04.2012
http://primanota.ru/prince/i-wonder-u-chords.htm
Привет, Гость.
Предлагаем пройти революционный курс по гитаре.
Подарок от PrimaNota.Ru, забирай!