PrimaNota.ru - самый крупный в мире бесплатный архив песенных текстов, аккордов, табулатур и нот


Prince - I Wish u Heaven - текст песни, бас-таба, видео

Регистрация Запомнить меня
Войти через:  Facebook Google Twitter Vk Yandex Mail.ru

Prince - I Wish u Heaven - текст песни, бас-таба, видео

Печатать
Просмотров: 105
Авторы музыки: Prince Rogers Nelson
Авторы текста: Prince Rogers Nelson
                                 I Wish U Heaven
                                      Prince

Bass                                                              Prince 

As played by Prince

Intro

|-----------------|-----------------|-----------------|-----------------|
|-----------------|-----------------|-----------------|-----------------|
|-----------------|-1-1-1-1-1-1-1-1-|-1-1-1-1-1-1-1-1-|-1-1-1-1-1-1-1-1-|
|-----------------|-----------------|-----------------|-----------------|
  W                 E E E E E E E E   E E E E E E E E   E E E E E E E E 

|-----------------|-----------------|-----------------|-----------------|
|-----------------|-----------------|-----------------|-----------------|
|-1-1-1-1-1-1-1-1-|-1-1-1-1-1-1-1---|-1-1-1-1-1-1-1-1-|-1-1-1-1-1-1-1---|
|-----------------|-----------------|-----------------|-----------------|
  E E E E E E E E   E E E E E E Q     E E E E E E E E   E E E E E E Q

Verse 1

|-----------------|-----------------|-----------------|-----------------|
|-----------------|-----------------|-----------------|-----------------|
|-1-1-1-1-1-1-1-1-|-1-1-1-1-1-1-1---|-1-1-1-1-1-1-1-1-|-1-1-1-1-1-1-1---|
|-----------------|-----------------|-----------------|-----------------|
  E E E E E E E E   E E E E E E Q     E E E E E E E E   E E E E E E Q

|-----------------|-----------------|-----------------|-----------------|
|-----------------|-----------------|-----------------|-----------------|
|-1-1-1-1-1-1-1-1-|-1-1-1-1-1-1-1---|-1-1-1-1-1-1-1-1-|-1-1-1-1-1-1-1---|
|-----------------|-----------------|-----------------|-----------------|
  E E E E E E E E   E E E E E E Q     E E E E E E E E   E E E E E E Q

|-----------------|-----------------|-----------------|-----------------|
|-1-1-1-1-1-1-1-1-|-1-1-1-1---0-1---|-1-1-1-1-1-1-1-1-|-1-1-1-1-1-1-1-1-|
|-----------------|---------3-------|-----------------|-----------------|
|-----------------|-----------------|-----------------|-----------------|
  E E E E E E E E   E E E E E E Q     E E E E E E E E   E E E E E E E E  

|-----------------|-----------------|
|-1-1-1-1-1-1-1-1-|-1-1-1-1-----1---|
|-----------------|---------3-5-----|
|-----------------|---------------1-|
  E E E E E E E E   E E E E E E E E 

Chorus 1

|-----------------|-----------------|-----------------|-----------------|
|-----------------|-----------------|-----------------|-----------------|
|-----------------|-----------------|-----------------|-----------------|
|(1)--------------|-----------1-1---|-----------------|-----------------|
  E E Q   H         H       E E Q     W                 W

Verse 2

|-----------------|-----------------|-----------------|-----------------|
|-----------------|-----------------|-----------------|-------------0---|
|-1-1-1-1-1-1-1-1-|-1-1-1-1-1-1-1---|-1-1-1-1-1-1-1-1-|-1-1-1-1-1-1-----|
|-----------------|-----------------|-----------------|-----------------|
  E E E E E E E E   E E E E E E Q     E E E E E E E E   E E E E E E Q

|-----------------|-----------------|
|-1-1-1-1-1-1-1-1-|-1-1-1-1---0-1-3-|
|-----------------|---------3-------|
|-----------------|-----------------|
  E E E E E E E E   E E E E E E E E  

Chorus 2

|-----------------|-----------------|-----------------|-----------------|
|(3)--------------|-----------------|-----------------|-----------------|
|-----------------|-----------------|-----------------|-----------------|
|-----------------|-----------1-1---|-----------------|-----------------|
  E E Q   H         H       E E Q     W                 W

Verse 3

|-----------------|-----------------|-----------------|-----------------|
|-----------------|-----------------|-----------------|-----------------|
|-1-1-1-1-1-1-1-1-|-1-1-1-1-1-1-1-1-|-1-1-1-1-1-1-1-1-|-1-1-1-1-1-1-1---|
|-----------------|-----------------|-----------------|-----------------|
  E E E E E E E E   E E E E E E E E   E E E E E E E E   E E E E E E Q

|-----------------|-----------------|
|-1-1-1-1-1-1-1-1-|-1-1-1-1---0-1-3-|
|-----------------|---------3-------|
|-----------------|-----------------|
  E E E E E E E E   E E E E E E E E  

Chorus 3

|-----------------|-----------------|-----------------|---------5-3-2-3-|
|(3)--------------|-----------------|-----------------|-----------------|
|-----------------|-----------------|-----------------|-----------------|
|-----------------|-----------1-1---|-----------------|-----------------|
  E E Q   H         H       E E Q     W                 H       E E E.S

Outro

|-----------------|-----------------|-----------------|-----------------|
|-----------------|-----------------|-----------------|-----------------|
|-----------------|-----------1-1---|-----------------|-------------1---|
|-----------------|-----------------|-----------------|-----------------|
  W                 H       E E Q     W                 H.          Q

|-----------------|-----------------|-----------------|-----------------|
|-----------------|-----------0-1-3-|(3)--------------|-----------------|
|-1---------------|---------3-------|-----------------|-----------------|
|-----------------|-----------------|-----------------|---------1-1-1---|
  E E H.            H       E E E E   E E Q   H         H       E E Q

|-----------------|-----------------|-----------------|-----------------|
|-----------------|---------5---3---|-----------------|-----------------|
|-----------------|---------------1-|-1-1-1-1-1-1-1-1-|-1-1-1-1-1-1-1---|
|-----------------|-----------------|-----------------|-----------------|
  W                 H       Q   E.S   E E E E E E E E   E E E E E E Q

|-----------------|-----------------|-----------------|-----------------|
|-----------------|-----------------|-1-1-1-1-1-1-1-1-|-1-1-1-1---0-1-3-|
|-1-1-1-1-1-1-1-1-|-1-1-1-1-1-1-1---|-----------------|---------3-------|
|-----------------|-----------------|-----------------|-----------------|
  E E E E E E E E   E E E E E E Q     E E E E E E E E   E E E E E E E E  


|-----------------|-----------------|-----------------|-----------------|
|(3)--------------|-----------------|-----------------|-----------------|
|-----------------|-----------------|-----------------|-----------------|
|-----------------|-----------1-1---|-----------------|-----------------|
  E E Q   H         H       E E Q     W                 W

|-----------------|-----------------|-----------------|----------------||
|-----------------|-----------------|-----------------|----------------||
|-1-----1-1-------|-----------------|-----------------|----------------||
|-----------------|-----------------|-----------------|----------------||
  E Q   E E Q.      W                 W                 W


Key to rhythm notations:

W - Whole Note/Semi-Brieve
H - Half Note/Minim
Q - Quarter Note/Crotchet       Q. - Dotted Quarter Note
E - Eight Note/Quaver           E. - Dotted Eight Note
S - Sixteenth Note/Semi-Quaver  S. - Dotted Sixteenth Note
   
Добавлено: 19.03.2016
Другие материалы по этой песне:

Страница создана 08.03.2012
http://primanota.ru/prince/i-wish-u-heaven-chords.htm
Привет, Гость.
Предлагаем пройти революционный курс по гитаре.
Подарок от PrimaNota.Ru, забирай!