PrimaNota.ru - самый крупный в мире бесплатный архив песенных текстов, аккордов, табулатур и нот


Prince - I Feel For You - текст песни, бас-таба, видео

Регистрация Запомнить меня
Войти через:  Facebook Google Twitter Vk Yandex Mail.ru

Prince - I Feel For You - текст песни, бас-таба, видео

Печатать
Просмотров: 119
Уроки эстрадного вокала в Санкт-Петербурге
Авторы музыки: Prince
Авторы текста: Prince
                                  I Feel For You
                                      Prince

Bass                                                                Prince 

As played by Prince

Intro

G|-----------------|-----------------|-----------------|-----------------|
D|-----------------|-----4-------4---|-----------------|---6-------------|
A|-----------------|-----------------|-2-----x-1---x---|-------4-4-----x/|
E|-2-----2---2---2-|-2-----2-2-2-----|---------------4-|-----------------|
   Q.    E E E E E   Q   E E E E E E   Q   E E E E E E   E E E E Q.    E

G|-----------------|-----------------|-----------3-----|-----------------|
D|-----------------|-----4-------4---|-----------------|-----------------|
A|-----------------|-----------------|-2-----x-1-------|-------4---------|
E|-2-----2---2---2-|-2-----2-2-2-----|---------------4-|-----------------|
   Q.    E E E E E   Q   E E E E E E   Q   E E E E E E   Q   E E H      

G|-----------------|
D|-----------------|
A|(4)--------------|
E|-----------------|
   W

Verse 1

G|-----------------|-----------------|-----------------|-----------------|
D|-----------------|-----------------|-----------------|-----------------|
A|-----------------|-2-----2---2-2-x-|-----------------|-----------------|
E|-2-----2---2-2---|-----------------|-0-----0---0---0-|-2-----2---2---2-|
   Q.    E E E E E   Q.    E E E E E   Q.    E E E E E   Q.    E E E E E

G|-----------------|-----------------|-----------------|-----------------|
D|-----------------|-----------------|-----------------|-----------------|
A|-----------------|-2-----2---2-x-2-|-----------------|-----------------|
E|-2-----2---2-2---|-----------------|-0-----0---0-0\--|-2-----2---2-2---|
   Q.    E E E E E   Q.    E E E E E   Q.    E E E Q     Q.    E E E E E

Pre-Chorus 1

G|-----------------|-----------------|-----4-----3-----|-----------------|
D|-----1---2---1---|-----1---2---1---|-----------------|-----------------|
A|-----------------|-----------------|-2-----2-1-------|-------4---4-----|
E|-2---------2---2-|-2-2-------2-----|---------------4-|-4-----------2\--|
   Q   E E E E E E   E E E E E E E E   Q   E E E E E E   Q   E Q   E Q

G|-----------------|-----------------|-----4-----3-----|-----------------|
D|-----1---2---1---|-----1---2---1---|-----------------|-----------------|
A|-----------------|-----------------|-2-----2-1-------|-------4---------|
E|-2---------2---2-|-2-2-------2-----|---------------4-|-----------------|
   Q   E E E E E E   E E E E E E E E   Q   E E E E E E   Q   E E H    

Chorus 1

G|-----------------|-----------------|-----------------|-----------------|
D|-------------4---|-----4-------4---|-----2-------2---|-----2---x---2---|
A|-----------------|-----------------|-----------------|-----------------|
E|-2-----2---2---2-|-2-2---2---2---2-|-0-0-------0-----|-0-0-------0-----|
   Q.  E E E E E E   E E E E E E E E   E E E Q   E E E   E E E E E E E E

G|-----------------|-----------------|-----------------|-----------------|
D|-----4-------4---|-----4-------4---|-----2-------2---|-----2-------2\--|
A|-----------------|-----------------|-----------------|-----------------|
E|-2-2---2-2-2-----|-2-2---2-2-2---2-|-0-0-----0-0-----|-0-------0-0-----|
   E E E E E E E E   E E E E E E E E   E E E E E E E E   E E E E E E Q

Verse 2

G|-----------------|-------------x---|-----------------|-----------------|
D|-----------------|-----------------|-----------------|-----------------|
A|-----------------|-2-----2---2---x-|-----------------|-----------------|
E|-2-----2---2-2---|-----------------|-0-----0---0---0-|-2-----2---2---2-|
   Q.    E E E E E   Q.    E E E E E   Q.    E E E E E   Q.    E E E E E

G|-----------------|-----------------|-----------------|-----------------|
D|-----------------|-----------------|-----------------|-----------------|
A|-----------------|-2-----2---2-x-2-|-----------------|-----------------|
E|-2-----2---2-2---|-----------------|-0-----0---0-0\--|-2-----2---2-x-2-|
   Q.    E E E E E   Q.    E E E E E   Q.    E E E Q     Q.    E E E E E

Pre-Chorus 2

G|-----------------|-----------------|-----4-----3-----|-----------------|
D|-----1---2---1---|-----1---2---1---|-----------------|-----------------|
A|-----------------|-----------------|-2-----2-1-------|-------4---------|
E|-2---------2---2-|-2-2---2---2-----|---------------4-|(4)--------------|
   Q   E E E E E E   E E E E E E E E   Q   E E E E E E   Q   E E H    

G|-----------------|-----------------|-----4-----3-----|-----------------|
D|-----1---2---1---|-----1---2---1---|-----------------|-----------------|
A|-----------------|-----------------|-2-----2-1-------|-------4/--------|
E|-2-------------2-|-2-2-------2-----|---------------4-|-----------------|
   Q   E E E E E E   E E E E E E E E   Q   E E E E E E   Q   E E H

Chorus 2

G|-----------------|-----------------|-----------------|-------7---6---4-|
D|-------------4---|-----4-------4---|-----2-----------|-----------------|
A|-----------------|-----------------|-----------------|-----5---4---2---|
E|-2-----2---2-----|-2-2---2-2-2---2-|-0-0-------0-----|-0-0-------------|
   Q.  E E E E E E   E E E E E E E E   E E E Q   E E E   E E E E E E E E

G|-----------------|-----------------|-----------------|-------7---6---7-|
D|-----4-------4---|-----4-------4---|-----2-------2---|-----------------|
A|-----------------|-----------------|-----------------|-----5---4---5---|
E|-2-2-------2-----|-2-2---2-2-2---2-|-0---------0-----|-0-0-------------|
   E E E E E E E E   E E E E E E E E   Q   E E E E E E   E E E E E E E E  

Interlude

G|-----------------|-----------------|-----------------|-----------------|
D|-------4-----4---|-----4-------4---|-----------------|-----------------|
A|-----------------|-----------------|-2-----x-1---x---|-------4---------|
E|-2---------2---2-|-2-----x-2-2-----|---------------4-|(4)4-------------|
   Q.    E E E E E   Q   E E E E E E   Q   E E E E E E   E E E E H

G|-----------------|-----------------|-----------x-----|-----------------|
D|-------4-----4---|-----4-------4---|-----------------|-----------------|
A|-----------------|-----------------|-2-----x-1-------|-------4---------|
E|-2-------2-2---2-|-2-----2-2-2-----|---------------4-|-----------------|
   Q.    E E E E E   Q   E E E E E E   Q   E E E E E E   E E E E H

G|-----------------|
D|-----------------|
A|(4)--------------|
E|-----------------|
   W

Solo

G|-----------------|-----------------|-----6---7---6---|-----------------|
D|-----1---2---1---|-----1---2---1---|-----------------|-----------------|
A|-----------------|-----------------|-----------------|-----5-5-4-4-2-2-|
E|-2---------2---2-|-2-2-------2---2-|-0-----0---0---0-|-0-0-------------|
   Q   E E E E E E   E E E E E E E E   Q   E E E E E E   E E E E E E E E

G|-----------------|-----------------|-----------------|-------7---6---4-|
D|-----1---2---1---|-----1---2---1---|-----------------|-----------------|
A|-----------------|---------------4-|-----4---5-------|-----5---4---2---|
E|-2---------2-----|-2-2-------2-----|-0-----0---0-----|-0-0-------------|
   Q   E E E E E E   E E E E E E E E   Q   E E E Q   E   E E E E E E E E

G|-----------------|-----------------|-----------------|-------7---6---4-|
D|-----1---2---1---|-----1---2---1---|-----------------|-----------------|
A|-----------------|-----------------|-----4---5-------|-----5---4---2---|
E|-2---------2-----|-2-2-------2-----|-0-----0---0-----|-0-0-------------|
   Q   E E E E E E   E E E E E E E E   Q   E E   Q   E   E E E E E E E E

G|-----------------|-----------------|-----9-----------|-------7---6---4-|
D|-----1---2---1---|-----1---2---1---|-------------9---|-----------------|
A|-----------------|-----------------|-----------------|-----5---4---2---|
E|-2---------2---2-|-2-2-------2-----|-0-0---0-0-0---0-|-0-0-------------|
   Q   E E E E E E   E E E E E E E E   E E E E E E E E   E E E E E E E E

Breakdown

G|-----------------|-----------------|-----------------|-----------------|
D|---------------4-|-----------------|-----------------|-----------------|
A|---------x-4-6---|-----------------|-----------------|-----------------|
E|-2---------------|-----------------|-0---------------|-0-------0---0---|
   E E Q E E S E S   W                 E E H.            E E Q   E E E E 

G|-----------------|-----------------|-----------------|-----------------|
D|---------------4-|-----------------|-----------------|-----------------|
A|-----------4-6---|-----------------|-----------------|-----------------|
E|-2---------------|-----------------|-0---------------|-0-------0---0---|
   E E E E E E E.S   W                 E E H.            E E Q   E E E E 

G|---------------6-|-----------------|-----------------|-----------------|
D|-----------6-8---|-----------------|-----------------|-----------------|
A|---------4-------|-----------------|-----------------|-----------------|
E|-2---------------|-----------------|-0---------------|-0-----x-0---0---|
   E H     E S E S   W                 E E H.            E E E E E E E E 

Outro

G|-----------------|-----------------|-----------------|-----------------|
D|-----------------|-----------------|-----------------|-----------------|
A|-----------------|-----------------|-----------------|-----------------|
E|-2-------------2-|-2-------------2-|-0---------------|-0-0-------------|
   Q   H       E E   Q   H       E E   Q   H.            E E H.

G|-----------------|-----------------|-----------------|----------------||
D|---------------x-|-------x---------|-----------------|----------------||
A|-----------------|-----------------|-----------------|----------------||
E|-2-----------2---|-2-2-2---------2-|-0---------------|-0--------------||
   Q   H     S S E   E E E E Q   E E   E E H.            E E H.


Key to rhythm notations:

W - Whole Note/Semi-Brieve
H - Half Note/Minim
Q - Quarter Note/Crotchet       Q. - Dotted Quarter Note
E - Eight Note/Quaver           E. - Dotted Eight Note
S - Sixteenth Note/Semi-Quaver  S. - Dotted Sixteenth Note
Добавлено: 29.10.2017
Другие материалы по этой песне:

Страница создана 26.02.2012
http://primanota.ru/prince/i-feel-for-you-chords.htm
Привет, Гость.
Предлагаем пройти революционный курс по гитаре.
Подарок от PrimaNota.Ru, забирай!