PrimaNota.ru - самый крупный в мире бесплатный архив песенных текстов, аккордов, табулатур и нот


Prince - I'm Yours - текст песни, таба, видео

Регистрация Запомнить меня
Войти через:  Facebook Google Twitter Vk Yandex Mail.ru

Prince - I'm Yours - текст песни, таба, видео

Печатать
Просмотров: 211



Date: Tue, 28 Mar 2006 17:02:25 EST
From: DontPoll@aol.com
Subject: p/prince/im_yours.tab

This is all my own work.
 
Prince
I'm Yours
 From the album For You (1978)
 
 Nice little funk/rock thing here; and even way back then he's tearing
 it up on guitar with some really speedy licks. I'm not exactly the fastest
 gun in the west. In fact, I've only been playing since last September..so
 I won't be able to do much justice to the song. But I like it, and there's
 currently no tab..so I'll give it my best.
 
 We're in the key of C#minor here..so scale wise it's mostly C# minor
pentatonic and C# minor
 (which is the same as E major pentatonic and E major, if you want to
think of it that way)
 
 Here's that guitar lick that's introduced about 10 seconds into the song:
 
E-------------------14------------------------------------------------------
B---14--16--17-------16--16h17p16---14---14h16p14--------------------
G---------------------------------------------------------------------16----
D---------------------------------------------------------------------------
A---------------------------------------------------------------------------
E---------------------------------------------------------------------------
 
I think that's repeated about 8 times, then the main funk groove
comes in.
 
There's also a main riff here, based on the C# minor pentatonic
scale. I play
it at the 9th position/fret. That's the easiest pentatonic pattern to
remember.
 
This isn't exact either, but it's something like this:
 
E----------------------------------------------------------------
B----------------------------------------------------------------
G--9--9---------9-----etc..----------9--11--9---------------------
D--------9--11-----11---------9--11------------------------------
A----------------------------------------------------------------
E----------------------------------------------------------------
                              ^This is the main riff to know
 
The chords over this part are C#m and A.
 
You can also use power chords if you'd like C#5 (x466xx) and A5
(577xxx)
for a more aggressive sound.
 
Then there's that bridge part (Lover can't you see..)
 
The chords for that are, roughly:
 
B/E (x79877)
 
G#m7 (464444)
 
Amaj (577655) 
Добавлено: 17.08.2013
Другие материалы по этой песне:
  • Аккорды и текст

Страница создана 05.07.2012
http://primanota.ru/prince/im-yours-chords.htm
Привет, Гость.
Предлагаем пройти революционный курс по гитаре.
Подарок от PrimaNota.Ru, забирай!