PrimaNota.ru - самый крупный в мире бесплатный архив песенных текстов, аккордов, табулатур и нот


Pod - Image - аккорды и текст, таба, бас-таба, видео

Регистрация Запомнить меня
Войти через:  Facebook Google Twitter Vk Yandex Mail.ru

Pod - Image - аккорды и текст, таба, бас-таба, видео

Печатать
Просмотров: 247
Image
Pod
Dropped D tuning
 
Chorus: 2x ("Breathe...")
[E-------------------------------------------------------------------------------------------------------
B-------------------------------------------------------------------------------------------------------
G------7--7-7-7-7-7-7-7------7--7-7-7-7-7-7-7------------------------------------7--7-7-7-7-7-7-7-------
D-3-0-7--7-7-7-7-7-7-7-3-0-7--7-7-7-7-7-7-7-3-2-3-2-3-2-3-2-3-2-3-2-3-0-7--7-7-7-7-7-7-7----------------
A-3-0-5--5-5-5-5-5-5-5-3-0-5--5-5-5-5-5-5-5-3-2-3-2-3-2-3-2-3-2-3-2-3-0-5--5-5-5-5-5-5-5----------------
D-3-0----------------------3-0----------------------3-2-3-2-3-2-3-2-3-2-3-2-3-0-------------------------

E--------------------------------------------------------------------
B--------------------------------------------------------------------
G------7--7-7-7-7-7-7-7----------------------------------------------
D-3-0-7--7-7-7-7-7-7-7-2-2-2-2-2-2-2-2-2-2-2-2-2-2-2-2---------------
A-3-0-5--5-5-5-5-5-5-5-2-2-2-2-2-2-2-2-2-2-2-2-2-2-2-2---------------
D-3-0----------------------2-2-2-2-2-2-2-2-2-2-2-2-2-2-2-2-----------]

Verse: ("I take it all in...")
[E---------------------------------------
B---------------------------------------
G---------------------------------------
D-2-3-0-2--3--2~---2-3-0-2--3--0~-------
A-2-3-0-2--3--2~---2-3-0-2--3--0~-------
D-2-3-0-2--3--2~---2-3-0-2--3--0~-------]

Verse 2: ("Stand among, gold seven, and lox'd up...")
[E---------------------------------------------------
B---------------------------------------------------
G-9-9-9--10-10-10-7-7-7-9-9-9-----------------------
D-9-9-9--10-10-10-7-7-7-9-9-9-2-3-0-2--3------------
A-7-7-7---8---8--8-5-5-5-7-7-7-2-3-0-2--3-----------
D------------------------------------2-3-0-2--3-----]

Bridge:
[E---------------------------------
B---------------------------------
G---------------------------------
D-2-3-0-2--3-2-3-0-2--3-(0~)------
A-2-3-0-2--3-2-3-0-2--3-(0~)------
D-2-3-0-2--3-2-3-0-2--3-(0~)------]

Verse 2
Bridge
Chorus
Verse
Добавлено: 08.02.2014
Другие материалы по этой песне:
  • Аккорды и текст

Страница создана 25.03.2012
http://primanota.ru/pod/image-chords.htm
Привет, Гость.
Предлагаем пройти революционный курс по гитаре.
Подарок от PrimaNota.Ru, забирай!