PrimaNota.ru - самый крупный в мире бесплатный архив песенных текстов, аккордов, табулатур и нот


Pod - Live And Die - аккорды и текст, таба, видео

Регистрация Запомнить меня
Войти через:  Facebook Google Twitter Vk Yandex Mail.ru

Pod - Live And Die - аккорды и текст, таба, видео

Печатать
Просмотров: 208
Live And Die
Pod
Artist: P.O.D
Tabbed by Henri Gates


Dropped D tuning

e  |--------------------------------------------------------------------------------------------------------|
B |---------------------------------------------------------------------------------------------------------|
G |---------------------------------------------------------------------------------------------------------|
D |---------------------------------------------------------------------------------------------------------|
A |---------------------------------------------------------------------------------------------------------|
D |-0--2--2--2--2--2--0--2--2--2--2--2--0--2--2--2--7--9--9--9--9--9--5--7--7--7--4--5--|-0--2--2--2--2--2--|

e |--------------------------------------------------------------------------------------------------|
B |--------------------------------------------------------------------------------------------------|
G |--------------------------------------------------------------------------------------------------|
D |--------------------------------------------------------------------------------------------------|
A |--------------------------------------------------------------------------------------------------|
D |-0--2--2--2--2--2--0--2--2--2--2--2--0--2--2--2--7--9--9--9--9--9--5--7--7--7--4--5---------------|

 Bridge
E |-------------------------------------|---------------------------------------|
B |-------------------------------------|---------------------------------------|
G |-------------------------------------|---------------------------------------|
D |-------------------------------------|---------------------------------------|
A |-2--0-------2--0-------2--0-----3----|-2--0-------2--0-------2--0-----3------|
D |-------2-----------2----------2------|-------2-----------2----------2--------|

 That's all I've gotten so far.  I think this is actually the bass, but it sounded okey on
my guitar.  If you have any questions, comments, or feel like trying to teach me how to
improve my tabs, you can email me at mxpx26@hotmail.com
Добавлено: 13.04.2012
Другие материалы по этой песне:
  • Аккорды и текст

Страница создана 13.04.2012
http://primanota.ru/pod/live-and-die-chords.htm
Привет, Гость.
Предлагаем пройти революционный курс по гитаре.
Подарок от PrimaNota.Ru, забирай!