PrimaNota.ru - самый крупный в мире бесплатный архив песенных текстов, аккордов, табулатур и нот


Peste Noire - Quand Je Bois Du Vin - таба, видео

Регистрация Запомнить меня
Войти через:  Facebook Google Twitter Vk Yandex Mail.ru

Peste Noire - Quand Je Bois Du Vin - таба, видео

Печатать
Просмотров: 108
-------------------------------------------------------------------------------
                             QUAND JE BOIS DU VIN - Peste Noire
-------------------------------------------------------------------------------
Tabbed by: Thomdakin

Tuning:Standard

2x
e|-----1---1---1----1---1---1----1---1---0-------0---1--------5-5h6p5-3-0-----------|
B|-------3---3--------3---3--------3---3---2---2---2-3----3-6-------------2-----3---|
G|-------------------------------------------2------------------------------0h2-----|
D|---0-----------------------------------------------0------------------------------|
A|----------------------------------------------------------------------------------|
E|----------------------------------------------------------------------------------|

e|----------------------------6-------6-5-----------3-----3-----3-----3------
B|-2/6--6---6---6-----6---6-------6---------6---------2-----2-----2-----2----
G|---7----7---7---------7---7---7---7-----------7-------2-----2-----2-----2--
D|---0-----------------------------------------------------------------------
A|---------------------------------------------------------------------------
E|---------------------------------------------------------------------------


1.
e|-1h0-----------------1h0---|
B|-----2---0h3h4-0h3h4-------|
G|-------2-------------------|
D|---------------------------|
A|---------------------------|
E|---------------------------|

2.

e|-1--------------0----------|
B|-2--------------2----------|
G|-3--------------2----------|
D|---------------------------|
A|---------------------------|
E|---------------------------|



it's best played on a 12 strings with a lot of nuances.

C'est joué sur une 12 cordes avec beaucoup de nuances. 

************************************

| /   slide up
| \   slide down
| h   hammer-on
| p   pull-off
| ~   vibrato
| +   harmonic
| x   Mute note
| b   Bend
| pb  Pre-bend
| br  Bend release
| pbr Pre-bend release
| brb Bend release bend

************************************
Добавлено: 12.03.2016
Другие материалы по этой песне:

Страница создана 12.03.2016
http://primanota.ru/peste-noire/quand-je-bois-du-vin-chords.htm
Привет, Гость.
Предлагаем пройти революционный курс по гитаре.
Подарок от PrimaNota.Ru, забирай!