PrimaNota.ru - самый крупный в мире бесплатный архив песенных текстов, аккордов, табулатур и нот


Peste Noire - Le Mort Joyeux - текст песни, таба, видео

Регистрация Запомнить меня
Войти через:  Facebook Google Twitter Vk Yandex Mail.ru

Peste Noire - Le Mort Joyeux - текст песни, таба, видео

Печатать
Просмотров: 217
Here is one website which sells Peste Noire
merchendise and includes there label's name:

http://www.redstream.org/Peste-Noire-Macabre-Transcendance_RD6685.php


#------------------------------------PLEASE  NOTE----------------------------------------------#
#This file is the author's own work and represents their interpretation of the #
#song. You may only use this file for private study, scholarship, or research#
#----------------------------------------------------------------------------------------------#

G: Peste Noire - Le mort Joyeux

Tabbed Wendsday, Mon 25  2008


Band   Peste Noire 
Album: La Sanie des siècles - Panégyrique de la dégénérescence
Song:  Le mort Joyeux
 
Transcribed By: Elathen
Email:         myfreezingmoon@yahoo.com


. - palm mute / - slide up to
 - slide down to ~ - vibrato
h - hammer on p - pull off
, - slight palm mute () - second time around
" " tremolo note <> - Trill

Suffixes for bend
f - full bend h - half bend
ph - pinched harmonic q - quarter bend
t - tap bend * - see comment
^ - Hold bend r - release bend
x – Staccato ~ - vibrato bend

Tuning E A D G B E

Riff 1a
|------------------------------------------------|
|------------------------------------------------| 
|------------------------------------------------| 
|--10"----9"---7"---9"----10"--------------9"----|  
|---9"----9"---9"---9"----9"---9"---12"----9"----|
|------------------------------10"--10"----------|

Riff 1b
|-------------------------------------------|
|-------------------------------------------| 
|------------------9"---10"--9"-------------| 
|--10"--9"---12"---9"---9"---9"--11"---13"--|  
|--9"---9"---9"------------------9"----9"---|
|-------------------------------------------|

Repeat Riff 1a

Riff 1c
|---------------------------------|
|---------------------------------| 
|---------------------------------| 
|--7"--5"--3"---------------------|  
|--5"--5"--5"----7"--8"----7"-----|
|----------------5"--5"----5"-----|
                                 
Riff 2                                    x2
|-------------------------------------------|
|-------------------------------------------| 
|-------------------------------------------| 
|-------4"---5"-----------4"--5"---4"---2"--|  
|--2"---2"---3"--3"--2"---2"--3"---2"---2"--|
|--0"------------5"--0"---------------------|
                                           
Riff 3                               1st var.    2nd  var.
|----------------------------------||-----------|----------|
|----------------------------------||-----------|----------| 
|----------5"---7"--5"---4"----3"--||-----------|----------| 
|------4"--3"---3"--3"---3"----3"--||------5"4"-|----------| 
|--2"--2"--------------------------||-5"4"------|--2"--1"--| 
|--0"------------------------------||-----------|--0"--3"--|
                                                          x5 
* Riff Three is hard to hear. 
Listen closely to the part without vocals.

Fill   Riff 4a
|-----||------------------------------------------------|
|-----||------------------------------------------------| 
|-----||--2-2-2--2-5-5---3-3--2-2-2-2---3-3-3-2--2--0---| 
|--2--||--0-0-0--0-0-0---0-0--0-0-0-0---0-0-0-0--0--0---|  
|--2--||------------------------------------------------|
|--0--||------------------------------------------------|
     x1
Riff 4 b                                   x6
|--------------------------------------------|
|---------------------^-^-^-^--^-^-^---------| 
|--2-2-2--2-5-5--3-3--3-3-3-3--3-3-3-2--2-0--|  
|--0-0-0--0-0-0--0-0--0-0-0-0--0-0-0-0--0-0--| 
|--------------------------------------------|
|--------------------------------------------|
                                            
The Solo bit (No Rythm Guitar played)

Riff 5                                      x6
|---------------------------------------------|
|---------"---------"---------"---------------| 
|-----5"--5^----5"--5^-----5"-5^--------------| 
|--3"--------3"---------3"--------------------|  
|---------------------------------8"-11"--8"--|
|---------------------------------------------|
                                             
Repeat riff 1a

Repeat riff 1b

Repeat riff 1a

Repeat riff 1c

Repeat riff 2 x 2 - End.

Добавлено: 13.07.2012
Другие материалы по этой песне:
  • Аккорды и текст

Страница создана 13.07.2012
http://primanota.ru/peste-noire/le-mort-joyeux-chords.htm
Привет, Гость.
Предлагаем пройти революционный курс по гитаре.
Подарок от PrimaNota.Ru, забирай!